Guitaretab - guitar tabs
Song name
# A B C D E F G H I J K L M N O P Q R S T U V W X Y Z

Girls Aloud - No Good Advice tab

Band: Girls Aloud
Track: No Good Advice
Album: Sound Of The Underground
Tabbed By: Tomsk

Capo First Fret.

Girls Aloud won the UK 'Pop Idol' and this track is the second to be 
released off their album. I don't like them, but the track can make 
you a fucking hero at a party.
Turn up the treble.

Played during intro

e|----------------------------------------|
B|----------------------------------------|
G|----------------------------------------|
D|-------------------------x-7s0----------|
A|--0--0-0-0--5s0---0--0-0-x-9s0----------|
E|----------------------------------------|

Bridge

e|---6-------------------------------------|
B|---6-------------------------------------|
G|---7---UPSTROKES-------------------------|
D|---8-------------------------------------|
A|---8-------------------------------------|
E|---6-------------------------------------|

Chorus

Am      C
Am      C
[ Tab from: http://www.guitaretab.com/g/girls-aloud/33710.html ]
Riff played after chorus

e|------------------------------------------|
B|------------------------------------------|
G|------------------------------------------|   x 2
D|------------2-2---------------------------|
A|----0-0--3-3-----3-3------------2-2-------|
E|-----------------------0-0--3-3-----3-3---|


Verse

e|----------------------------------------|
B|----------------------------------------|
G|----------------------------------------|
D|-------------------------x-7s0----------|
A|--0--0-0-0--5s0---0--0-0-x-9s0----------|
E|----------------------------------------|

e|----------------------------------------|
B|----------------------------------------|
G|----------------------0----0------------|
D|---------------------2----4-------------|
A|--0--0-0-0--5s0-----3----5--------------|
E|----------------------------------------|

That's all the guitaring in the song

Barca_Rocks@hotmail.com
My mouth tastes like beer.
Related for No Good Advice tab
Advertisement will be closed in 10 seconds