Guitaretab - guitar tabs
Song name
# A B C D E F G H I J K L M N O P Q R S T U V W X Y Z

Girls Aloud - Something Kinda Ooooh tab

~~~~~~~~~~~~~~~~~~~~~~~~~
11. Something Kinda Ooooh
~~~~~~~~~~~~~~~~~~~~~~~~~


Intro
-----

e|------------------|------------------|
B|------------------|------------------|
G|------------7-----|----------7-------|
D|--9-----9---5---7-|--9---9---5---7---|
A|--7-----7-------5-|--7---7-------5---|
E|------------------|------------------|
         (x3)               (x1)



Chorus
------

e|-------------------------------|
B|-------------------------------|
G|-------------------------------|
D|-------------------------------|
A|--7---7-5----------------------|
E|-----------7-------7------/9---| (let the strings ring)


Verse
-----

e|------------------|------------------|
B|------------------|------------------|
G|------------------|------------7-----|
D|--9-----9---------|--9-----9---5---7-|
A|--7-----7---------|--7-----7-------5-| (x3)
E|------------------|------------------|
[ Tab from: http://www.guitaretab.com/g/girls-aloud/80196.html ]
e|------------------|------------------|
B|------------------|------------------|
G|------------------|--7---7---7---7---|
D|--9-----9---------|--5---5---5---5---|
A|--7-----7---------|------------------| (x1)
E|------------------|------------------|



Pre-Chorus
----------

e|------------|------------|
B|------------|------------|
G|------------|------------|
D|--5-5-4/2---|--0-0-1/2---|
A|------------|------------|
E|------------|------------|
      (x3)         (x1)

e|------------|------------|
B|------------|-------3----|
G|------------|---4-4---4--|
D|--5-5-4/2---|------0-----|
A|------------|--2-2---2---|
E|------------|------------|
      (x3)         (x1)



Bridge
------
Pick as fast as you can while sliding slowly. The lyrics show when you reach
those notes.

e|--------------------------------------------|
B|--5/////----------------//off the board...--|
G|--------------------------------------------|
    "I've got to heat...'

e|------------------------------------------------------------|
B|--17/////------5/////------17/////------//off the board...--|
G|------------------------------------------------------------|
   'oh boy'  'feel'       'steel'




Order:
Intro x2
Chorus x4
Verse 
Pre-Chorus
Chorus x4
Bridge
Pre-Chorus
Chorus x6


Hope u liked it
Please leave any comments u might have

Tabbed by NintEndO
Related for Something Kinda Ooooh tab
Advertisement will be closed in 10 seconds