Song name
# A B C D E F G H I J K L M N O P Q R S T U V W X Y Z

Girls Aloud - Black Jacks tab

-------------------------------------------------------------------------------
			     BLACK JACKS - Girls Aloud
-------------------------------------------------------------------------------
OK guys. Its an Ultimate Guitar Cliche, but this is my first tab. Thought i'd start off basic. 

Tabbed by: Poixen
Email: lifeguardlowe@hotmail.co.uk

Tuning: Standard
Chorus:              Build up bit from palm mute: Overdrive
e|---------------------------------------------------------------------------|
B|---------------------------------------------------------------------------|
G|---------------------7-----------------------------------------------------|
D|---------------------7-x8--------------------------------------------------|
A|---------------------5-----------------------------------------------------|
E|---------------------------------------------------------------------------|
                     Main bit: Overdrive
e|---------------------------------------------------------------------------|
B|---------6----6----5---------3----6----5-----------------------------------|
G|---------7----6----5----2----3----6----5----2------------------------------|
D|---------7-x8-6-x8-5-x8-3----3-x8-6-x8-5-x8-3--------x2--------------------|
A|---------5----4----3----3-x8-1----4----3----3-x8---------------------------|
E|------------------------1-------------------1------------------------------|

Strum through these chords at the start of the song and at the break. Play it clean.

Its my first tab so go easy. Hopefully ill make some more.

Poixen





==============================================================================
Tap to rate this tab
 
# A B C D E F G H I J K L M N O P Q R S T U V W X Y Z