Song name
# A B C D E F G H I J K L M N O P Q R S T U V W X Y Z

Girls Generation - Chocolate Love tab

Chocolate Love-Girls' Generation (SNSD)
ruiz_lavigne@yahoo.com :)

INTRO:

E |---5--x-x--------x--x--x------------6-5-x-x--------|
B |---7--x-x---7-5--x--x--x---5-7-8----8-7-x-x--------|
G |---x--x-x---9-7--x--x--x---7-9-10---x-x-x-x--------|	2x
D |---x--x-x---x-x--x--x--x---x-x-x----x-x-x-x--------|
A |------x-x---x-x--x--x--x---x-x-x--------x-x--------|
E |------x-x--------x--x--x----------------x-x--------|

VERSE:

E |---5-5-5-5----------------------6-5-5-5-5----------------|
B |---7-7-7-7---5-5-5-5----5-7-8---8-7-7-7-7----------------|
G |---x-x-x-x---7-7-7-7----7-9-10--x-x-x-x-x----------------|	2x
D |---x-x-x-x---x-x-x-x----x-x-x---x-x-x-x-x----------------|
A |-------------x-x-x-x----x-x-x----------------------------|
E |---------------------------------------------------------|

REFRAIN:

E |------------------------------------------------------|
B |---0-4-5-7---0-5-7-8----8--10-8--7-5-4----------------|
G |-----6-7-9-----7-9-10---10-12-10-9-7-6----------------|
D |-----x-x-x-----x-x-x----x--x--x--x-x-x----------------|
A |-----x-x-x-----x-x-x----x--x--x--x-x-x----------------|
E |------------------------------------------------------|

E |----------------------------------------------5/--------|
B |---0-4-5-7---0-5-7-8----8--10-8--10-13-12-----5/--------|
G |-----6-7-9-----7-9-10---10-12-10-12-11-10-----5/--------|
D |-----x-x-x-----x-x-x----x--x--x--x--x--x------x/--------|
A |-----x-x-x-----x-x-x----x--x--x--x--x--x------x/--------|
E |----------------------------------------------x/--------|

CHORUS:

      I got you babe..  I call..    choco  -late  love
E |---5-5-5-5-------------------------------6-----5-5-5--|
B |---7-7-7-7--------5-5-5-5-5-5-----8------8-----7-7-7--|
G |---x-x-x-x--------7-7-7-7-7-7-----10-----x-----x-x-x--|	2x
D |---x-x-x-x--------x-x-x-x-x-x-----x------x-----x-x-x--|
A |------------------x-x-x-x-x-x-----x-------------------|
E |------------------------------------------------------|

BRIDGE:

E |------------------------------------------------------------|
B |---9--9--9--9-----5-5-5-5-----10-10-10-10----9--9--9--9-----|
G |---11-11-11-11----7-7-7-7-----12-12-12-12----11-11-11-11----|   4x
D |---x--x--x--x-----x-x-x-x-----x--x--x--x-----x--x--x--x-----|
A |---x--x--x--x-----x-x-x-x-----x--x--x--x-----x--x--x--x-----|
E |------------------------------------------------------------|

   ----5/----|
   ----5/----|
   ----5/----|
   ----x/----|
   ----x/----|
   ----x/----|
Tap to rate this tab
 
# A B C D E F G H I J K L M N O P Q R S T U V W X Y Z