Song name
# A B C D E F G H I J K L M N O P Q R S T U V W X Y Z

Girls Generation - Run Devil Run chords

Highlighted       Show chord diagrams
Song: Run Devil Run
Band: Girls' Generation
Year: 2010
Tabbed by: blurenciel
Tuning: dropped-D

Intro
Chord: A
e|-x-x--x-x--x-x--x--|
B|-x-x--x-x--x-x--x--|
G|-x-x--x-x--x-x--x--|
D|-7-7--7-7--7-7--7--|
A|-7-7--7-7--7-7--7--|
D|-7-7--7-7--7-7--7--|
Listen to the song..

Verse
Bm
e|-x-xxx-x--x-xxx-x----------|
B|-x-xxx-x--x-xxx-x----------|
G|-x-xxx-x--x-xxx-x----------|
D|-9-979-9--9-979-9----------|
A|-9-979-9--9-979-9----------|
D|-9-979-9--9-979-9-     ----| 4X

Pre-chorus
G                 E
Neon jaemi eobseo maeneo eobseo
G                      E
Neon devil, devil neon neon

Play Verse -> 1X

Pre-chorus
G                                     E
Neon na mollae nugul manna neun kkeum jjikhan
                           G
Geu beoreut mot gochyeo ni ttwiyeo bwado son badagan ingeol

Chorus
           G         A         E
You better run, run, run, run, run, deoneun mot bwa geodeo cha jullae
           G         A         E
You better run, run, run, run, run, nal but jabado gwanshim kkeo dullae
     Bm                A             G           E
Hey, deo meotjin naega dweneun nal gapa jugesseo ijjima
           G         A         Bm
You better run, run, run, run, run, ttak geollyeosseo yageollyeo sseo,
Bm
run devil, devil, run, run

Post-chorus
Bm
e|-x-xxx-x-xxx-x--x-xxxxx-x-----|
B|-x-xxx-x-xxx-x--x-xxxxx-x-----|
G|-x-xxx-x-xxx-x--x-xxxxx-x-----|
D|-9-979-9-979-9--9-97979-9-----|
A|-9-979-9-979-9--9-97979-9-----|
D|-9-979-9-979-9--9-97979-9-----|

Play verse -> 1X

Play pre-chorus -> 1X

Play chorus -> 1X

Play post-chorus -> 2X

Bridge
   G
Na gateun ae eodiyedo eobseo
                     E
Jan meori gullyeoseo shilmang haesseo
    Bm                                  A
Nan gyaene deul boda deo daedanhae neon geureohke keoseo mwo dwellae
G                        F#                          F#
Kka bulji mallaetji neol saranghae julttae jal haraetji

Play chorus -> 1x

Play post-chorus -> 2X

blurenciel2010
24032010
1015
Tap to rate this tab
 
# A B C D E F G H I J K L M N O P Q R S T U V W X Y Z