Song name
# A B C D E F G H I J K L M N O P Q R S T U V W X Y Z

Girls Generation - Run Devil Run tab

please open this link in new tab:
=   http://www.youtube.com/watch?v=q_gfD3nvh-8  =
follow the time line below


Intro

e|---------|
b|---------|
g|---------|
d|--4------|
a|--4------|
D|--2------|
    .. (palm mute)  do this until  0:12


Verse:1 (strum this part down then Up..continuously) start at 0:13

Ddok barohae neon joengmal bad boy....
e|-------|
b|-------|
g|--4----|
d|--4----|
a|--2----|
D|--x----|

Sarangbodan hogishimbbun
e|----------------|
b|----------------|
g|----------------|
d|--5-5----7-7----|
a|--5-5----7-7----|
D|--3-3----5-5----|

Geu dongan nan neo ddaeme ggambbak
e|-------|
b|-------|
g|--4----|
d|--4----|
a|--2----|
D|--x----|

Sogaseo neomeogangeoya
e|----------------|
b|----------------|
g|----------------|
d|--5-5----7-7----|
a|--5-5----7-7----|
D|--3-3----5-5----|

(Yoona)Neon jaemi eobseo maeneo eobseo
Neon devil devil neon neon
e|-----------------------------------------------------|
b|-----------------------------------------------------|
g|--4-4-4-4-4-4-4-4/6-6-6-6-6-6/7-7-7-7-7-7/9-9-9/11~--|
d|--4-4-4-4-4-4-4-4/6-6-6-6-6-6/7-7-7-7-7-7/9-9-9/11~--|
a|--2-2-2-2-2-2-2-2/4-4-4-4-4-4/5-5-5-5-5-5/7-7-7/9~---|
D|-----------------------------------------------------|
      .   .   .   .   .   .   .   .   .   .


Ne haendeupon sumanheun namja
e|-------|
b|-------|
g|--4----|
d|--4----|
a|--2----|
D|--x----|

Han geuljaman bakkun yeoja
e|----------------|
b|----------------|
g|----------------|
d|--5-5----7-7----|
a|--5-5----7-7----|
D|--3-3----5-5----|

Nae kkoggaji yeokgyeoun perfume
e|-------|
b|-------|
g|--4----|
d|--4----|
a|--2----|
D|--x----|

Nugu geonji seolmyeong haebwa
e|----------------|
b|----------------|
g|----------------|
d|--5-5----7-7----|
a|--5-5----7-7----|
D|--3-3----5-5----|

(Sooyoung) Neon na mollae nugul mannaneun
Ggeumjjikhan geu beoreut mot gochyeotni
(Hyoyeon)  Ddwieo bwado sonbadak aningeol
e|-----------------------------------------------------|
b|-----------------------------------------------------|
g|--4-4-4-4-4-4-4-4/6-6-6-6-6-6/7-7-7-7-7-7/9-9-9/11~--|
d|--4-4-4-4-4-4-4-4/6-6-6-6-6-6/7-7-7-7-7-7/9-9-9/11~--|
a|--2-2-2-2-2-2-2-2/4-4-4-4-4-4/5-5-5-5-5-5/7-7-7/9~---|
D|-----------------------------------------------------|
      .   .   .   .   .   .   .   .   .   .


CHORUS
You better run run run run run
[SUNNY] Deoneun mot bwa geodeocha jullae
You better run run run run run
[SEOHYUN] Nal butjabado gwanshim ggeodullae hey
[TAEYEON] De meotjin naega dweneun nal
Gapajugesseo itjima

e|----------------------|
b|----------------------|
g|----------------------|
d|-4-4--7-7--9-9--8-8---|
a|-4-4--7-7--9-9--8-8---|
D|-2-2--5-5--7-7--6-6---|

You better run run run run run
e|-------------------------------------------------------------------|
b|---------------|---------------------------------------------------|
g|---------------|4-4------------------------------------------------|
d|--4-4--7-7-5---|4-4(do this like in the verse/until chorus end)----|
a|--4-4--7-7-5---|2-2------------------------------------------------|
D|--2-2--5-7-3---|---------------------------------------------------|



Continue this in Verse 2 and 2nd chorus.and until it ends...
  i'm sorry that i can't tab the guitar solo part by SIRFAT.



Follow this link for guitar tab(guide) by sirfat25138 :
 =  http://www.youtube.com/watch?v=GWUikpNPxWA =


any corrections and comments are welcome.
just visit my Youtube channel  " Theramonc2 "
 =  http://www.youtube.com/user/TheRamonc2  =



Legend:

 ( . ) = Pal mute
 ( / ) = slide
 ( ~ ) = vibrato



Run Devil Run by: (SNSD/So Nyuh Shi Dae)Girls' Generation 
  album: Oh!/Rundevilrun 2010
=  www.soshified.com  =


Tap to rate this tab
# A B C D E F G H I J K L M N O P Q R S T U V W X Y Z