Song name
# A B C D E F G H I J K L M N O P Q R S T U V W X Y Z

Girls Generation - Tell Me Your Wish Genie tab

"Tell Me Your Wish (Genie)"
- SNSD/Girls' Generation


Tabbed by incuntestable@youtube.com
Video reference/guide: http://www.youtube.com/watch?v=CidaUBfTmPc


Standard tuning
No capo


Intro/verse/pre-chorus
B(m) A-B

e|---------------------|
B|---------------------|
G|---------------------|
D|--9----9--9--7--9----|
A|--9----9--9--7--9----|
E|--7----7--7--5--7----|


Pre-chorus:
As above or you can just play B throughout the section.


Chorus:
B D A E
B D F# E

(A and F# are interchangeable; play whichever you prefer)


--

*Bonus!*
http://www.youtube.com/watch?v=-ZgCGiUKBfw

Dream High version intro (which is the chorus):

    Bm           D              Fm              E
e:-----------------------2---------------------------------------|
B:----------3--------3----3--------------2--------------0--------|
G:------4----------2---------------------------------1-----------|
D:----4----------0-----------------2---------------2-------------|
A:--2------------------------------------------------------------|
E:------------------------------2---------------0----------------|

    Bm           D              Fm              E
e:-----------------------2---------------------------------------|
B:----------3--------3----3------------2---------------0---------|
G:------4----------2-----------------2---------------1-----------|
D:----4----------0-----------------2---------------2-------------|
A:--2------------------------------------------------------------|
E:------------------------------2---------------0----------------|

add embellishments/extra notes to your liking.
Tap to rate this tab
 
# A B C D E F G H I J K L M N O P Q R S T U V W X Y Z