Guitaretab - guitar tabs
Song name
# A B C D E F G H I J K L M N O P Q R S T U V W X Y Z

Girls Germs - Crowded Life tab

Tabbed by: Dave
Email: globe_05@hotmailcom

sick song, like all their others. easy to play. like all their others.
ill start to tab some more for yas all. have fun with it. peace out...

Tuning: Standard
[ Tab from: http://www.guitaretab.com/g/girls-germs/33381.html ]
       verses - (repeat throughout all verses)
e|---------------------------------------------------|
B|---------------------------------------------------|
G|-7-7-7-7-7-7--4-4-4-4-4-4--------------------------|
D|-7-7-7-7-7-7--4-4-4-4-4-4--4-4-4-4-4-4--5-5--7-7-7-|
A|-5-5-5-5-5-5--2-2-2-2-2-2--4-4-4-4-4-4--5-5--7-7-7-|
E|---------------------------2-2-2-2-2-2--3-3--5-5-5-|
        
       the bit beteen verses and the chorus
e|---------------------|
B|---------------------|
G|-7-7-7-7-7-7---------|
D|-7-7-7-7-7-7--3--5-5-|
A|-5-5-5-5-5-5--3--5-5-|
E|--------------2--3-3-|

chorus is these chords, listen for the timing
e|---------|
B|---------|
G|-7-------|(theres a little bit of palm 
D|-7--7--5-| muting, just listen for it.)
A|-5--7--5-|
E|----5--3-|

       Bridge-
e|-------------------------------------------|
B|-------------------------------------------|
G|-------------------------------------------| (* = palm muting)
D|-5--5-5-5-5-5-5--7--7-7-7-7-7-7--9--11--12-|
A|-5--5-5-5-5-5-5--7--7-7-7-7-7-7--9--11--12-|
E|-3--3-3-3-3-3-3--5--5-5-5-5-5-5--7---9--10-|
      * * * * * *     * * * * * *
Related for Crowded Life tab