Guitaretab - guitar tabs
Song name
# A B C D E F G H I J K L M N O P Q R S T U V W X Y Z

Girls Germs - Jaded Love Song tab

JADED LOVE SONG - GIRLS GERMS
TABED BY PETE HAWKINS

Intro and verses:

e---------------------------------------------------------------------|
 ---------------------------------------------------------------------|
 ---------0-----------------0--------------0------------------0-------|
 ----4-------4---4-----4------4---4----4------4----4------4------4--4-|
 --5---5-------5------------------------------------------------------|
E--------------------7---7------7-----5--5-------5------3---3------3--|

Chorus:
[ Tab from: http://www.guitaretab.com/g/girls-germs/39181.html ]
p/m
e--------------------------------------------------------------------|
 --------------------------------------------------------------------|
 --------------------------------------------------------------------|
 --7-7-7-7-7-7-7---9-9-9-9-9-9-9---3-3-3-3-3-3-3-3-3-3-3-3-----------|
 --7-7-7-7-7-7-7---9-9-9-9-9-9-9---3-3-3-3-3-3-3-3-3-3-3-3-----------|
E--5-5-5-5-5-5-5---7-7-7-7-7-7-7---5-5-5-5-5-5-5-5-5-5-5-5-----------|

e--------------------------------------------------------------------|
 --------------------------------------------------------------------|
 ----------------------------------7-7-7-7-7-7-7-7-7-7-7-7-----------|
 --7-7-7-7-7-7-7---9-9-9-9-9-9-9---7-7-7-7-7-7-7-7-7-7-7-7-----------|
 --7-7-7-7-7-7-7---9-9-9-9-9-9-9---5-5-5-5-5-5-5-5-5-5-5-5-----------|
E--5-5-5-5-5-5-5---7-7-7-7-7-7-7-------------------------------------|

                    I'm fairly thats it.
email me with any questions: peter_hawkins007@hotmail.com
Related for Jaded Love Song tab