Song name
# A B C D E F G H I J K L M N O P Q R S T U V W X Y Z

Girls In Hawa - 9 00 Am tab

Help us improve GuitareTab! Take a short survey!
e|----------------------------------|
B|----------------------------------|
G|6-6-6-6-6-6-6-6-6-6-6-6-6-6-6-6-7-|
D|----------------------------------|
A|-0-0-0-0-0-0-0-0-0-0-0-0-0-0-0----|
E|----------------------------------|


e|-------------------------------------2--4---
B|------------------6-6-6-6-6-6-6-6----3--5--|
G|6-6-6-6-6-6-6-6----------------------4--6--|
D|-------------------0-0-0-0-0-0-0-0---4--6--|
A|-0-0-0-0-0-0-0-0---------------------2--4--|
E|-------------------------------------2--4--|

e|----------------|
B|----------------|
G|6-6-6-6-6-6-7-7-|
D|----------------|
A|-0-0-0-0-0-0----|
E|----------------|


e|-------------------------------------2--4--5--2--|
B|------------------6-6-6-6-6-6-6-6----3--5--7--3--|
G|6-6-6-6-6-6-6-6----------------------4--6--7--4--|
D|-------------------0-0-0-0-0-0-0-0---4--6--7--4--|
A|-0-0-0-0-0-0-0-0---------------------2--4--5--2--|
E|-------------------------------------2--4--5--2--|


e|----------------|
B|----------------|
G|6-6-6-6-6-6-7-7-|
D|----------------|
A|-0-0-0-0-0-0----|
E|----------------|


e|-------------------------------------2--4---
B|------------------6-6-6-6-6-6-6-6----3--5--|
G|6-6-6-6-6-6-6-6----------------------4--6--|
D|-------------------0-0-0-0-0-0-0-0---4--6--|
A|-0-0-0-0-0-0-0-0---------------------2--4--|
E|-------------------------------------2--4--|


e|----------------|
B|----------------|
G|6-6-6-6-6-6-7-7-|
D|----------------|
A|-0-0-0-0-0-0----|
E|----------------|
                       
                                             X2
e|-----------------------------------|---2--4--5--2--|
B|------------------6-6-6-6-6-6-6-6--|---3--5--7--3--|
G|6-6-6-6-6-6-6-6--------------------|---4--6--7--4--|
D|-------------------0-0-0-0-0-0-0-0-|---4--6--7--4--|
A|-0-0-0-0-0-0-0-0-------------------|---2--4--5--2--|
E|-----------------------------------|---2--4--5--2--|


e|---3/4--17----17----17-...
B|-5---------14----14---- ...
G|

e|-----------------------------------------------------------12-----|
B|-----------------------------------14----14-15----14----14-----14-|
G|14-14-14--13-14-----------14-14-------14-------------14-----------|
D|----------------16--14/16-----------------------------------------|
Related for 9 00 Am tab