Song name
# A B C D E F G H I J K L M N O P Q R S T U V W X Y Z

Girls Names - Drawing Lines tab

Drawing Lines by Girls Names (off of The New Life)


Intro (x4)

E---------------------------------------------|
B---------------------------------------------|
G----5-----5--------9------3------2------5----|
D-7-----6-------10------4------3------6-------|
A---------------------------------------------|
E---------------------------------------------|


Verse


Normal solo (x2)

E-------------------------|
B-------------------------|
G--5-5-5-4-5-4--7-5-4-5-4-|   (x2)
D-------------------------|
A-------------------------|
E-------------------------|

E----------------------------|
B----------------------------|
G-9-9-9-8-3-3-3-5-3-2-2-3-5--|
D----------------------------|
A----------------------------|
E----------------------------|


Verse


Normal solo (x2)

E-------------------------|
B-------------------------|
G--5-5-5-4-5-4--7-5-4-5-4-|   (x2)
D-------------------------|
A-------------------------|
E-------------------------|

E----------------------------|
B----------------------------|
G-9-9-9-8-3-3-3-5-3-2-2-3-5--|
D----------------------------|
A----------------------------|
E----------------------------|

Ending solo

E-----------------------------------------------|
B-----------------------------------------------|
G-----------------------------------------------|
D-----------------------------------------------|
A-----------------------------------------------|
E-5--5-5-5-4-4-4-4-4-8-8-8-8-2-2-2-2-1-1-1-1-4--| (x2)


E----------------------------------------------------------------|
B----------------------------------------------------------------|
G----------------------------------------------------------------|
D-7-7-7-7-7-7-7-6-6-6-6-6-10-10-10-10-10-10-4-4-4-3-3-3-3-6-6----|
A----------------------------------------------------------------|
E----------------------------------------------------------------|


E----------------------------------------|
B----------------------------------------|
G----------------------------------------|
D----------------------------------------|
A----------------------------------------|
E-5-5-5-5-5-4-4-4-4-4-8-2-1-4------------|(end on 5)
Tap to rate this tab
# A B C D E F G H I J K L M N O P Q R S T U V W X Y Z