Song name
# A B C D E F G H I J K L M N O P Q R S T U V W X Y Z

Girls - Laura tab

Song: Laura
Band: Girls
Album: "Album"

Tab by Devin Miller

******************************************************

2 guitars: (1) Lead with Capo 4th fret
           (2) Rhythm with Capo 4th fret

NOTE: I will tab the lead as if there is no capo.  So although
4th fret would be considered "0", here it is still "4".  The
rhythm notes are relative to the capo (0 = 4th fret).

Rhythm guitar chords:

   E    Abm    A     Am
e|-0-----0-----1-----1-----|
B|-1-----0-----1-----1-----|
G|-0-----0-----2-----1-----|
D|-2-----2-----3-----3-----|
A|-3-----2-----3-----3-----|
E|-3-----0-----1-----1-----|


Intro lead guitar riffs:

e|-12h14p12----------------------|-12-11-----------------------------------|
B|----------12h14p12-------------|---------14-12---------------------------|
G|-------------------14s16--13---|-----------------11--11s13---------------|
D|-------------------------------|-----------------------------9s11---10---|
A|-------------------------------|-----------------------------------------|
E|-------------------------------|-----------------------------------------|

Riff during verse:

e|-12h14p12--------------------|
B|----------12h14p12-----------|
G|-------------------13--------|
D|-----------------------------|
A|-----------------------------|
E|-----------------------------|

Add some vibrato to the sustained notes!


******************************************************
OUTRO (timing switches to 6/8)
******************************************************

Rhythm guitar chords:

    E7     A
e|--0------0-------|
B|--0------1-------|
G|--0------2-------|
D|--2------3-------|
A|--3------3-------|
E|-----------------|

Lead guitar riff:

e|-14s16------|-14s16------|------------|------------------------------|
B|------------|------------|-12s14------|-14h16-s17-16-14-17s16\-------|
G|------------|------------|------------|------------------------------|
D|------------|------------|------------|------------------------------|
A|------------|------------|------------|------------------------------|
E|------------|------------|------------|------------------------------|

e|-----7-----------|-----------------|---------|-----------------------|
B|-7s9----9--7-----|-----------------|---------|-----------------------|
G|--------------9--|-8s9------8------|---------|-9-6h8------8-6-8------|
D|-----------------|------------9s11-|---------|-----------------------|
A|-----------------|-----------------|---------|-----------------------|
E|-----------------|-----------------|---------|-----------------------|

e|--------------------|-----------------------|---------------------|
B|------------------7-|-9-7-9------9-7-9------|-9-7-9-------9-7-9-7-|
G|-8-6-8------8-6-8---|-----------------------|---------------------|
D|--------------------|-----------------------|---------------------|
A|--------------------|-----------------------|---------------------|
E|--------------------|-----------------------|---------------------|

e|---------------------|---------------------|----------------------|
B|---------------------|------------------7--|-9-7-9----9-7-9-------|
G|-8-6-8-----8-6-8-----|-8-6-8------8-6-8----|----------------------|
D|---------------------|---------------------|----------------------|
A|---------------------|---------------------|----------------------|
E|---------------------|---------------------|----------------------|

e|-----------------18\--|
B|-9-7-9-----9-7--------|
G|----------------------|
D|----------------------|
A|----------------------|
E|----------------------|

Next, repeat the following twice:

e|-------------------|--------------------|-------------------|
B|-------------------|--------------------|-------------------|
G|-------------------|-----------------4--|-6-4-6----6-4-6----|
D|-6-4-6----6-4-6----|-6-4-6----6-4-6-----|-------------------|
A|-------------------|--------------------|-------------------|
E|-------------------|--------------------|-------------------|

e|--------------------|
B|--------------------|
G|-6-4-6----6-4-6--4--|
D|--------------------|
A|--------------------|
E|--------------------|

Final riff:

e|-4h7p4--------------------------------------|
B|-------4h7p4--------------------------------|
G|-------------4h6p4--------------------------|
D|-------------------4h7p4--------------------|
A|-------------------------4h7p4--------------|
E|-------------------------------7------------|


******************************************************

Notation Legend:

h = hammer-on
p = pull-off
s = slide to
\ = slide out

******************************************************
Tap to rate this tab
# A B C D E F G H I J K L M N O P Q R S T U V W X Y Z