Song name
# A B C D E F G H I J K L M N O P Q R S T U V W X Y Z

Girls - Ghostmouth tab

                               -GIRLS-

                            Ghostmouth(solo)

        Starts at 1:55

      e[----------------------------------------------------------]
      B[-----------4-5~------5-5-5--7-5-4-----------4-5~----5-5-5-]
      G[---4-4-4-6-----------------------6-4~---4-6---------------]
      D[----------------------------------------------------------]
      A[----------------------------------------------------------]
      E[----------------------------------------------------------]

      e[----------------------------------------------------7-----------]
      B[-7-5-4----------------------5-7-7/8-7-5--5-7-5-7/9-----9p7------]
      G[-------6-4--------4-6-6-4-6--------------------------------9-8~-]
      D[------------6-4-6-----------------------------------------------]
      A[----------------------------------------------------------------]
      E[----------------------------------------------------------------]

      e[---------------7------------------------------------------------]
      B[---------7-7h9----9-7---------------------------------7-7h8-7---]
      G[-8-8-8-9--------------9-8~--8-8-8h9p8-6---6-6---6-8-9---------9-]
      D[----------------------------------------9-----9-----------------]
      A[----------------------------------------------------------------]
      E[----------------------------------------------------------------]

      e[-----------7(let ring)-------------------------------------]
      B[---7---7/9-------------------------------------------------]
      G[-9---9-----------------------------------------------------]
      D[-----------------------------------------------------------]
      A[-----------------------------------------------------------]
      E[-----------------------------------------------------------]

             ~  vibrato
             h  hammer on
             p  pull off


        Please rate.
Tap to rate this tab
 
# A B C D E F G H I J K L M N O P Q R S T U V W X Y Z