Song name
# A B C D E F G H I J K L M N O P Q R S T U V W X Y Z

Girls - Heartbreaker tab

                              -GIRLS-


                            Heartbreaker (solo)

         Starts at 2:42.


        E[-------------------------------------------------------------]
        B[---------------------------------------12-9-----------9------]
        G[----------9-9--11-"9"----------9-9--11-------11-9--11---"11"-]
        D[--9h11-11--------------9h11-11-------------------------------]
        A[-------------------------------------------------------------]
        E[-------------------------------------------------------------]


        E[-------------------------------------------------------------]
        B[------9----9----9--------------9----9----9-------------------]
        G[--/11---11---11---11--"9"--/11---11---11---11--9-9-----------]
        D[----------------------------------------------------11-"9"---]
        A[-------------------------------------------------------------]
        E[-------------------------------------------------------------]



        E[-------------------------------------------------------------]
        B[---------------------------------------12-9-----------9------]
        G[----------9-9--11-"9"----------9-9--11-------11-9--11---"11"-]
        D[--9h11-11--------------9h11-11-------------------------------]
        A[-------------------------------------------------------------]
        E[-------------------------------------------------------------]



        E[--12-12--9-9-----9-------------------------------------------]
        B[--------------12---12--"10"---10-12-10--"9"------------------]
        G[-------------------------------------------------------------]
        D[-------------------------------------------------------------]
        A[-------------------------------------------------------------]
        E[-------------------------------------------------------------]

            h: hammer on
            /: slide
         " " : vibrato

           END. HOPE YOU ENJOY IT AND PLEASE DONīT FORGET TO RATE.
Tap to rate this tab
 
# A B C D E F G H I J K L M N O P Q R S T U V W X Y Z