Song name
# A B C D E F G H I J K L M N O P Q R S T U V W X Y Z

Girlschool - Nothing To Lose tab

Intro/Verse

e--------------------------------------------|
b-----3-3------3-3---------------------------|
g--2h4--2-2-2h4--2------2---------2----2-----|  repeat
d-------0--------0---4--2\--2-4-4-2\---2-----|
a--------------------------5---------5-------|
E--------------------------------------------|

Bridge

e-------------------|
b--7---5---7---9----|
g--9---7---9---11---|
d--9---7---9---11---|
a--7---5---7---9----|
E-------------------|

Chorus

e-----------------|
b--10--7--10--7---|
g--12--9--12--9---|
d--12--9--12--9---|
a--10--7--10--7---|
E-----------------|

Solo

e-----------------------------------------------------------------|
b---------------------------10-10/12-12-10-10---------------------|
g-9-7-6-7-7/9-9-9/11-9-9/11----------------10h11-9----------------|
d--------------------------------------------------12-12----------|
a-----------------------------------------------------------------|
E-----------------------------------------------------------------|

e------------------------------------------------------------------------|
b-------------------------------------------10-12p10-12-10---------------|
g-----10b10.75r10.5r10.25r10r9---9-10br9--9--------------11-11-11-9---9--|
d--12--------------------------12-------12--------------------------12---|
a------------------------------------------------------------------------|
E------------------------------------------------------------------------|

e--------------------------|
b--------------------------|
g--9h11-9h11--11-9---9/11--|
d------------------12------|
a--------------------------|
E--------------------------|
Tap to rate this tab
 
# A B C D E F G H I J K L M N O P Q R S T U V W X Y Z