Song name
# A B C D E F G H I J K L M N O P Q R S T U V W X Y Z

Girlschool - Not For Sale tab

Help us improve GuitareTab! Take a short survey!
Cocorosie - Not for sale
standard tuning

e|--------1--------1-------------1--------1----------------------------------|
B|-----3-------3--------3---1----------1-------1--------4--------4-----------|
G|--3--------3--------3-----2-------2--------2-----3----------3--------3-----|
D|-------------------------------------------------5-------5--------5--------|
A|---------------------------------------------------------------------------|
E|---------------------------------------------------------------------------|

    leave me..    on the    corner...   where you  found me...    i'm not


e|---------------------------------------------------------------------------|
B|--------3------------------------------------------------------------------|
G|-----3-----3---------------------------------------------------------------|
D|--5-----------5------------------------------------------------------------|
A|---------------------------------------------------------------------------|
E|---------------------------------------------------------------------------|
    for sale anymore.. 



tabbed by lili, lililogic@gmail.com
let me know notes i didn't catch.
Related for Not For Sale tab