Song name
# A B C D E F G H I J K L M N O P Q R S T U V W X Y Z

Girlschool - Wild At Heart tab

======================================|
Artist : David Pedersen		      |
Song   : Wild At Heart		      |
Length : 2:57			      |
Author : GuitarEspen		      |
======================================|
Confirmation that David Pedersen is a musician:
http://bandindex.no/index.cfm?template=info.cfm/4886

Official Site:
http://www.davidpedersen.no/orion.html

h = Hammer
b = Bend
p = Pull-Off
/ = Slide

Standard Tuning	- Moderately Slow Rock


Guitar 1 : Acoustic Steel       Play 5 Times				   
E|-----------------------------------------|-------1----------1-----------3----------|
B|-----1----------1--------3----------1----|-----3---3------3---3-------1---1--------|
G|-------0------0---0----0---0------0---0--|---2----------------------0--------------|
D|---2--------------------------2h3--------|-0----------2h3---------3----------------|
A|-0--------2h3----------------------------|-----------------------------------------|
E|---------------------3-------------------|-----------------------------------------|

Chorus: 0,33 min

Guitar 2 : Electric Guitar - Distortion							   Play 2 Times
E|----------------------------------------------------------------------------------------------------|
B|----------------------------------------------------------------------------------------------------|
G|-5-5--x-x-x--------------2-2--x-x-x--------------5-5--x-x-x--------------2--2-----------------------|
D|-5-5--x-x-x--3-3--x-x-x--2-2--x-x-x--5-5--x-x-x--5-5--x-x-x--3-3--x-x-x--2--2---5----5-5-5-5-5-5-5--|
A|-3-3--x-x-x--3-3--x-x-x--0-0--x-x-x--5-5--x-x-x--3-3--x-x-x--3-3--x-x-x--0--0---5----5-5-5-5-5-5-5--|
E|-------------1-1--x-x-x--------------3-3--x-x-x--------------1-1--x-x-x---------3----3-3-3-3-3-3-3--|

Verse: 0,55 min

Guitar 1 : Acoustic Steel       				  			   Play Middle Part 4 Times
E|-----------------------------------------|-----------------------------------------|-------1----------1----------3------------|
B|-----1----------1--------3----------1----|-----1----------1--------3-----------1---|-----3---3------3---3------1---1----------|
G|-------0------0---0----0---0------0------|-------0------0---0----0---0-------0---0-|---2---------------------0----------------|
D|---2--------------------------2h3--------|---2---------------------------2h3-------|-0----------2h3--------3------------------|
A|-0--------2h3----------------------------|-0--------2h3----------------------------|------------------------------------------|
E|---------------------3-------------------|---------------------3-------------------|------------------------------------------|

Chorus: 1,22 min

Guitar 2 : Electric Guitar - Distortion							   Play 2 Times
E|----------------------------------------------------------------------------------------------------|
B|----------------------------------------------------------------------------------------------------|
G|-5-5--x-x-x--------------2-2--x-x-x--------------5-5--x-x-x--------------2--2-----------------------|
D|-5-5--x-x-x--3-3--x-x-x--2-2--x-x-x--5-5--x-x-x--5-5--x-x-x--3-3--x-x-x--2--2---5----5-5-5-5-5-5-5--|
A|-3-3--x-x-x--3-3--x-x-x--0-0--x-x-x--5-5--x-x-x--3-3--x-x-x--3-3--x-x-x--0--0---5----5-5-5-5-5-5-5--|
E|-------------1-1--x-x-x--------------3-3--x-x-x--------------1-1--x-x-x---------3----3-3-3-3-3-3-3--|

Solo: 1,44 min

Guitar 2: Electric Guitar - Distortion
E|----------------------------------------------------------------------|
B|----------------------------------------------------------------------|
G|---7----------------------------------7-------------------------------|
D|---7---------------------3------------7--------------3---------5------|
A|---5---------------------3------------5--------------3---------5------|
E|-------------------------1---------------------------1---------3------|
								
Guitar 3: Electric Guitar
E|----------------------------------------------------------------------|
B|----------------------------------------------------------------------|
G|---------------------------------------------------------------12-----|
D|---14/16-------12--------14/17-------16-16-16p14-12--15--------12-----|
A|-----------------------------------------------------15---------------|
E|----------------------------------------------------------------------|

Chrous: 1,55 min

Guitar 2: Electric Guitar - Distortion							  Play 4 Times
E|----------------------------------------------------------------------------------------------------|
B|----------------------------------------------------------------------------------------------------|
G|-5-5--x-x-x--------------2-2--x-x-x--------------5-5--x-x-x--------------2--2-----------------------|
D|-5-5--x-x-x--3-3--x-x-x--2-2--x-x-x--5-5--x-x-x--5-5--x-x-x--3-3--x-x-x--2--2---5----5-5-5-5-5-5-5--|
A|-3-3--x-x-x--3-3--x-x-x--0-0--x-x-x--5-5--x-x-x--3-3--x-x-x--3-3--x-x-x--0--0---5----5-5-5-5-5-5-5--|
E|-------------1-1--x-x-x--------------3-3--x-x-x--------------1-1--x-x-x---------3----3-3-3-3-3-3-3--|


Ending: 2,39 min

Guitar 1 : Acoustic Steel
E|----------------------------------------------|
B|------1----------1---------3----------1-------|
G|--------0------0---0-----0---0------0---------|
D|---2----------------------------2h3-----------|
A|-0---------2h3--------------------------------|
E|----------------------3-----------------------|

[2:57 min]

Tap to rate this tab
 
# A B C D E F G H I J K L M N O P Q R S T U V W X Y Z