Song name
# A B C D E F G H I J K L M N O P Q R S T U V W X Y Z

Girugamesh - Ame To Fukousha tab

official website: http://www.girugamesh.com/

Tuning is Drop B: C# G# E B F# B


Intro:


 play x2
|-----------------------------------------|
|-----------------------------------------|
|-----------------------------------------|
|---7-7-7--6-6--2--4------6---------------|
|---7-7-7--6-6--2--4------6---------------|
|---7-7-7--6-6--2--4(x5)--6---------------|


  play x 1                                                    
|---------------------------------------------------------------------------|
|---------------------------------------------------------------------------|
|---------------------------------------------------------------------------|
|--7-7--6-6--2---11--9--7--4--4-6---7-7-7--6-6--2--4-4--2--4----------------|
|--7-7--6-6--2---11--9--7--4--4-6---7-7-7--6-6--2--4-4--2--4----------------|
|--7-7--6-6--2---11--9--7--4--4-6---7-7-7--6-6--2--4-4--2--4----------------|
                                                     

Verse:

|---------------------------------------------------------------------------|
|---------------------------------------------------------------------------|
|-----------------------------------------------------6--4------------------|
|-------7-----6---------4--7-6--------7-----6---------------6-7-6-----------|
|-----7---------7-----4--------7----7----------7---4------------------------|
|---7------6--------4-------------7------6----------------------------------|


|--------------------------------------------------------------------|
|--------------------------------------------------------------------|
|-----------------------------------------------6-6--4-4-------------|
|--------7-----6---------------------7-----6----x-x--x-x-------------|
|-----7----------7---4-2-0---------7---------7--4-4--2-2-------------|
|--7---------6--------------4-6--7------6----------------------------|



Chorus:

  repeat indefinitely
|-------------------------------------|
|-------------------------------------|
|-------------------------------------|
|-0------2-------4------7-------------|
|-0------2-------4------7-------------|
|-0(x6)--2(x6)---4(x6)--7(x6)---------|



Solo:


 Tremolo every note
|--------------10-------------------------------------------|
|--10---9--10------9--10--9--10--9--10---12-14/0--2/10------|
|-----------------------------------------------------------|
|-----------------------------------------------------------|
|-----------------------------------------------------------|
|-----------------------------------------------------------|

 Stop tremolo
|---------------------------------------------------------------------------------|
|--10-9-9--12--10-10--14-12-12---12-10-10--10-9-9--12-10-10--14-12-12--14b-14b-14b|
|---------------------------------------------------------------------------------|
|---------------------------------------------------------------------------------|
|---------------------------------------------------------------------------------|
|---------------------------------------------------------------------------------|

|------------------------------------------17-16----------------17v--16v----|
|-10-9-9--12-10-10--14-12-12--12-10-10-----------17-------------------------|
|----------------------------------------------------16v--------------------|
|----------------------------------------------------------14---------------|
|---------------------------------------------------------------------------|
|---------------------------------------------------------------------------|




End the song like this:

|----------------------------------|
|----------------------5-----------|
|----------------------7-----------|
|-------4--7-6---------6-----------|
|-----4--------7-------------------|
|---4------------------------------|



Tap to rate this tab
# A B C D E F G H I J K L M N O P Q R S T U V W X Y Z