Song name
# A B C D E F G H I J K L M N O P Q R S T U V W X Y Z

Girugamesh - Fukai No Yami tab

Tuning is Drop A#: C G D# A# F A#  


Verse:

|-----------------------------------------------------|
|--------8--11--10---6----------8--11--10--6----------|
|-----7-----------------5---7-----------------5-------|
|-----x---------------------x-------------------------|
|-----5---------------------5-------------------------|
|-----------------------------------------------------|


Chorus:

|---------------------------------------|
|---------------------------------------|
|---------------------------------------|
|--5-------1------3------0--------------|
|--5-------1------3------0--------------|
|--5(x3)---1(x3)--3(x3)--0(x3)----------|



Bridge(2:06):

|------------------------------------------------------------------|
|--------------------------8---6--8-----6-8-----6-8------8---------|
|--7------7------7--7--7---8---------7-------7-------7---7---------|
|--5------5------5--5--5---8-----------------------------5---------|
|--5(x5)--5(x5)--5--5--5---6-----------------------------5---------|
|--------------------------------------------------------5---------|


Solo:

|------------------------------------------------------------------|
|------------------------------------------------------------------|
|-----------------5--------------------7---------------5-7---------|
|--5-7-8-7-----------8-7-8-7--------7-----8--7-8--7-8--------------|
|-----------8--5--------------8--5---------------------------------|
|------------------------------------------------------------------|


|---18-17-17-17--18v--18--17-17-17--18-17------22--17-17-17-18--18-17-18-18--20v-22v|
|-----------------------------------------18v---------------------------------------|
|-----------------------------------------------------------------------------------|
|-----------------------------------------------------------------------------------|
|-----------------------------------------------------------------------------------|
|-----------------------------------------------------------------------------------|
Tap to rate this tab
 
# A B C D E F G H I J K L M N O P Q R S T U V W X Y Z