Song name
# A B C D E F G H I J K L M N O P Q R S T U V W X Y Z

Gisbert Zu Knyphausen - Ein Bisschen Mehr Wrde tab

Gisbert zu Knyphausen
www.gisbertzuknyphausen.de
http://www.youtube.com/watch?v=U6ApvJkGVk0

Da der Song noch nicht erschienen ist, wei ich nicht ob er wirklich so heit. 
erwnscht!

Sebastian, im April 2009


Capo im dritten Bund, Standard Tuning


Strophe (Teil 1)

E|-------------------------------------------------|-------------------------------------------------|
B|----0-----------0-----------0-----------0--------|----------0-----------0-----------0--------------|
G|----------5-----------5-----------5-----------5--|----2-----------2-----------2-----------2-----2--|
D|-------------------------------------------------|-------------------------------------------------|
A|-0-----0-----0-----0-----0-----0-----0-----0-----|-------------------------------------------------|
E|-------------------------------------------------|-2-----2-----2-----2-----2-----2-----2-----2-----|


E|-------------------------------------------------|-------------------------------------------------|
B|----------0-----------0-----------0--------------|----------1-----------0-----------------0--------|
G|----3-----------3-----------3-----------3-----3--|----0-----------2-----------1-----2--------------|
D|-------------------------------------------------|----------------------------------------------2--|
A|-------------------------------------------------|-------------------------------------------------|
E|-3-----3-----3-----3-----3-----3-----3-----3-----|-0-----0-----0-----0-----0-----0-----0-----0-----|


Strophe (Teil 2)

E|-------------------------------------------------|-------------------------------------------------|
B|----------0-----------5-----------0--------------|----------0-----------0-----------0-----------0--|
G|----5-----------5-----------5-----------5-----5--|----2-----------2-----------2-----------2--------|
D|-------------------------------------------------|-------------------------------------------------|
A|-0-----0-----0-----0-----0-----0-----0-----0-----|-------------------------------------------------|
E|-------------------------------------------------|-2-----2-----2-----2-----2-----2-----2-----2-----|


E|-------------------------------------------------|-------------------------------------------------|
B|-------------------------------------------------|-------------------------------------------------|
G|----------0-----------0-----------0-----------0--|----------0-----------0-----------0-----------0--|
D|----0-----------0-----------0-----------0--------|----0-----------0-----------0-----------0--------|
A|-------------------------------------------------|-------------------------------------------------|
E|-3-----3-----3-----3-----3-----3-----3-----3-----|-3-----3-----3-----3-----3-----3-----3-----3-----|

(Diese zwei Takte werden am Ende jeder Strophe leicht variiert. Lohnt nicht aufzuschreiben.)

Refrain

E|-------------------------------------------------|-------------------------------------------------|
B|----------8-----------7-----------8--------------|----------3-----------1-----------0-----------0--|
G|----0-----------0-----------0-----------0-----7--|----2-----------2-----------2-----------2--------|
D|-------------------------------------------------|-------------------------------------------------|
A|-------------------------------------------------|-------------------------------------------------|
E|-0-----0-----0-----0-----0-----0-----0-----0-----|-2-----2-----2-----2-----2-----2-----2-----2-----|


E|----------3-----------2-----------3--------------|-------------------------------------------------|
B|----0-----------0-----------0-----------0-----3--|----------1-----------1-----------0--------------|
G|-------------------------------------------------|----0-----------0-----------0-----------0-----2--|
D|-------------------------------------------------|-------------------------------------------------|
A|-------------------------------------------------|-3-----3-----3-----3-----3-----3-----3-----3-----|
E|-0-----0-----0-----0-----0-----0-----0-----0-----|-------------------------------------------------|


E|-------------------------------------------------|-------------------------------------------------|
B|-------------------------------------------------|----------------------0--------------------------|
G|----------5-----------4-----------4-----------0--|----------2-----------2--------------------------|
D|----4-----------4-----------4-----------4--------|----0-----------0-----------0-----4-----0-----0--|
A|-------------------------------------------------|-------------------------------------------------|
E|-2-----2-----2-----2-----2-----2-----2-----2-----|-2-----2-----2-----2-----2-----2-----2-----2-----|

E|-------------------------------------------------|-------------------------------------------------|
B|-------------------------------------------------|-------------------------------------------------|
G|----------0-----------0-----------0-----------0--|----------0-----------0-----------0-----------0--|
D|----0-----------0-----------0-----------0--------|----0-----------0-----------0-----------0--------|
A|-------2-----------2-----------2-----------2-----|-------2-----------2-----------2-----------2-----|
E|-3-----------3-----------3-----------3-----------|-3-----------3-----------3-----------3-----------|

Outro

E|-------------------------------------------------|-------------------------------------------------|
B|----------8-----------7-----------8--------------|----------3-----------1-----------0-----------0--|
G|----0-----------0-----------0-----------0-----7--|----2-----------2-----------2-----------2--------|
D|-------------------------------------------------|-------------------------------------------------|
A|-------------------------------------------------|-------------------------------------------------|
E|-0-----0-----0-----0-----0-----0-----0-----0-----|-2-----2-----2-----2-----2-----2-----2-----2-----|


E|----------3-----------2-----------2--------------|-------------------------------------------------|
B|----------3-----------3-----------3--------------|----------1-----------1-----0--------------------|
G|----0-----------0-----------0-----------0-----0--|----0-----------0-----------------0--------------|
D|-------------------------------------------------|-------2-----------2--------------------2-----0--|
A|-------------------------------------------------|-3-----------3-----------3-----3-----3-----3-----|
E|-0-----0-----0-----0-----0-----0-----0-----0-----|-------------------------------------------------|


E|-------------------------------------------------|-------------------------------------------------|
B|-------------------------------------------------|-------------------------------------------------|
G|----------5-----------4-----------2--------------|----------2-----------0--------------------------|
D|----4-----------4-----------4-----------2-----2--|----0-----------0-----------0-----4-----0-----0--|
A|-0-----0-----0-----0-----0-----0-----0-----0-----|-------------------------------------------------|
E|-------------------------------------------------|-2-----2-----2-----2-----2-----2-----2-----2-----|


E|-------------------------------------------------|--------|
B|-------------------------------------------------|--------|
G|----------0-----------0-----------0-----------0--|--------|
D|----0-----------0-----------0-----------0--------|--------|
A|-------2-----------2-----------2-----------2-----|--------|
E|-3-----------3-----------3-----------3-----------|-3------|


Ein seltsames Licht
sie und ich
und alles was damals noch zwischen uns (viel war?)

wir hielten uns auf
aber wir hielten nicht an
und wir meielten unsere namen in den
asphalt; wir schrieben wir warn hier
genau wie ihr

ich hatte den arsch voller glck
und das maul voller
beschwerden
auserkoren um gebckt zu gehn, jaja

ich halte mich fest
an allem was nicht wehtut
doch ein kleines bisschen mehr wrde wr nicht schlecht
wenn ich singe ich war hier
genau wie ihr

REFRAIN:
und so wie es war solls nie wieder sein
und so wie es ist darfs nicht bleiben
und wie es wird kann vielleicht nur der bucklige winter entscheiden
wir sehn uns wieder ganz bestimmt
irgendwann

wir schnappten nach luft
in einem bett am fenster
's war weit geffnet um die stimme zu vertreiben
ich blickte dich fragend an
und du lachtest mich nur aus
doch deine lippen formten leise dein gebet
du sagtest ich, ich bleib hier
so wie ihr

zwei wochen spter auf dem hof
dein lebloser krper
in einem zimmer voller blumen und gewalt
und sechs kleine jungs
aufgereiht im dunklen anzug
und ihre lieder klagten lautlos in der nacht
sie sangen
bitte, bitte bleib hier
so wie wir

REFRAIN:
aber so wie es war wirds nie wieder sein
und so wie es ist wirds nicht bleiben
und wie es wird kann vielleicht
nur der bucklige winter entscheiden
wir sehn uns wieder ganz bestimmt
irgendwann
Tap to rate this tab
# A B C D E F G H I J K L M N O P Q R S T U V W X Y Z