Song name
# A B C D E F G H I J K L M N O P Q R S T U V W X Y Z

Gisbert Zu Knyphausen - Kleine Ballade chords

Hey! Roughly.. enjoy! :) 


Intro + Strophe (Strophe ist eher wie die zweite Haelfte des Intros)

|--------------------------------------------------------------------------------------------|
|------0--------------0---------------------------0-----------------1-------1-------3-------3|
|---------0---0---0-------0---0---0-----------0-------0-----0---0-------0-------0-------0----|
|-5--5--5---5---4---4---4---4---5---5s7s9s5s2---2---2---0h2-------2-------2-------4-------4--|
|-------------------------------------------------------------3-------3-------5-------5------|
|--------------------------------------------------------------------------------------------|


|----------------------------------------3---------2-----2---------3-------7---0-------------|
|-------0-------0-------0-------0----------------0---------------0-------------------0-------|
|---0-------0-------0-------0--------0-------0-------0-------0-------0-------0---0-------0---|
|-----0-------0-------0-------0----5---5---5---5---4---4---4---4---5---5s7s9s5s2---2---2-----|
|--------------------------------------------------------------------------------------------|
|-3-------3-------3-------3------------------------------------------------------------------|


|--------------------------------------------------------------------------------------------|
|-------------1-------1-------3-------3-------0-------0--------------------------------------|
|-----0---0-------0-------0-------0-------0-------0------------------------------------------|
|-0h2-------2-------2-------4-------4-------0-------0----------------------------------------|
|-------3-------3-------5-------5------------------------------------------------------------|
|---------------------------------------3-------3--------------------------------------------|

Refrain

       Am		  D/Fis          Em
|--------------------------------------------------------------------------------------------|
|------------1-------------3--------------0-----0-----0-----0--------------------------------|
|----------2---2---2-----2---2---2------0-----0-----0-----0----------------------------------|
|--------2-------2-----0-------0------2-----2-----2-----2------------------------------------|
|------0-------------------------------------------------------------------------------------|
|-3-2----------------2--------------0--------------------------------------------------------|

danach im selben Zupf-Schema:

Am D/Fis Em

C  D/Fis G  Em

C  D/Fis G  

In der Sonne glaenzt dein Kleid
und am Himmel macht der Tag sich breit,
ein alter Mann kotzt auf die Wiese
und die Daecher singen Lieder vom Verfall.

Ja ich will dich verstehen,
doch am liebsten wuerd ich untergehn,
in dem Meer deiner Gefuehle setz ich leise meine Segel
und schlaf ein.

Bis der Wind sich langsam dreht
und mein kleines Boot im Meer vergeht...
Und in der Luft haengt still dein Wort,
ich glaub wir waren schon mal an diesem Ort.
Meine Gedanken schwingen stumm um dich herum,
doch du schickst sie wieder fort - einfach so, einfach so...

Wir ziehen uns durch die Stadt
und wir trampeln unsre Liebe platt.
Wir haben die Welt in unsren Herzen
und wir pruegeln unter Schmerzen auf sie ein.
Doch was, wenn ich dir jetzt sag,
dass ich das Leben eigentlich ganz gerne mag!
Gib mir die Hand, ich halt sie fest, wir gehen zum Flohmarkt -
und verscheuern unsern Tag.

Ich weiss nich' was dich noch so quaelt.
Du wirst geliebt und du liebst, und das ist was zaehlt!
Und in der Luft haengt still dein Wort,
ich glaub wir schonmal an diesem Ort.
Und meine Lieder laermen laut um dich herum,
doch du schickst sie wieder fort - einfach so, einfach so, einfach so...
lalala
Tap to rate this tab
# A B C D E F G H I J K L M N O P Q R S T U V W X Y Z