Song name
# A B C D E F G H I J K L M N O P Q R S T U V W X Y Z

Gisbert Zu Knyphausen - Wer Kann Sich Schon Entscheiden tab

-------------------------------------------------------------------------------
		Wer kann sich schon entscheiden - Gisbert zu Knyphausen
-------------------------------------------------------------------------------
Tabbed by: chnoepfli
Email:

Tuning: standart

easy Intro 2x

   C                         F
e|----------------------------------------------------|
B|---------------------------------------1---------0--|
G|-----------1----------0------------2----------2-----|
D|--------0---------0-------------3----------3--------|
A|-----2--------2-------------------------------------|
E|--3------------------------1------------------------|

   Am                      G
e|----------------------------------------------------|
B|--------1----0h1--------------------0---------0-----|
G|--------2--------2---------------0---------0--------|
D|-----2--------------0---------0---------0-----------|
A|---0------------------------------------------------|
E|-------------------------3--------------------------|

add on after 2nd repead

e|---------------------|
B|--------0------------|
G|-----0---------------|
D|--0------------------|
A|-------------0--2----|
E|---------------------|


Vers.1, 4x

   C                         F
e|----------------------------------------------------|
B|---------------------------------------1---------0--|
G|-----------1----------0------------2----------2-----|
D|--------0---------0-------------3----------3--------|
A|-----2--------2-------------------------------------|
E|--3------------------------1------------------------|

   Am                      G
e|----------------------------------------------------|
B|-----------1--------0---------------0---------0-----|
G|--------2--------2---------------0---------0--------|
D|-----2---------2--------------0---------0-----------|
A|---0------------------------------------------------|
E|-------------------------3--------------------------|

add on after 4th repead

e|---------------------|
B|--------0------------|
G|-----0---------------|
D|--0------------------|
A|---------------------|
E|-------------3--2--0-|


bridge

    Em                    Am
e|----------------------------------------------------|
B|-----------0--------0-------------1--------0--------|
G|--------0--------0-------------2--------2-----------|
D|-----2--------2-------------2--------2--------------|
A|-------------------------0--------------------------|
E|--0-------------------------------------------------|


    Dm                     G
e|-----------1--------0-------------3-----------------|
B|--------3--------3-------------0-----------0--------|
G|-----2--------2-------------0-----------0-----------|
D|--0----------------------------------0--------------|
A|----------------------------------------------------|
E|-------------------------3--------------------------|


   Em                    Am
e|----------------------------------------------------|
B|-----------0--------0-------------1--------0--------|
G|--------0--------0-------------2--------2-----------|
D|-----2--------2-------------2--------2--------------|
A|-------------------------0--------------------------|
E|--0-------------------------------------------------|


    Dm                     
e|-----------1--------1--------1--------0-------------|
B|--------3--------3--------3--------3----------------|
G|-----2--------2--------2--------2-------------------|
D|--0-------------------------------------------------|
A|----------------------------------------------------|
E|----------------------------------------------------|


    G
e|-----------3---------3--------3--------0------------|
B|--------0---------0--------0--------0---------------|
G|-----0---------0--------0--------0------------------|
D|----------------------------------------------------|
A|----------------------------------------------------|
E|--3-------------------------------------------------|


repeat easy Intro 2x

repeat Vers.2, 4x

...and so on.





Hope everything ist right

have fun!



************************************

| /   slide up
| \   slide down
| h   hammer-on
| p   pull-off
| ~   vibrato
| +   harmonic
| x   Mute note
| b   Bend
| pb  Pre-bend
| br  Bend release
| pbr Pre-bend release
| brb Bend release bend

************************************
Tap to rate this tab
 
# A B C D E F G H I J K L M N O P Q R S T U V W X Y Z