Song name
# A B C D E F G H I J K L M N O P Q R S T U V W X Y Z

Gisbert Zu Knyphausen - Spieglein Spieglein tab

-------------------------------------------------------------------------------
	                 		   SPIEGLEIN SPIEGLEIN - Gisbert zu Knyphausen
-------------------------------------------------------------------------------
Tabbed by: MrMelody
E-Mail: riderwherethetreesarelow@myspace.com

Tuning: standard, no capo

You'll figure out the rhythm of playing quite fast.

Intro (2x, 2nd time with small variations in the first two bars)
e|-----------------|-----------------|-----------------|-----------0-----|
B|-------0-------0-|-------0-------0-|-------0-------0-|-------3-------3-|
G|-----0-------0---|-----2-------2---|-----3-------3---|-----2-----------|
D|---2-------2-----|---0-------0-----|---2-------2-----|---3-------------|
A|-----------------|-----------------|-----------------|-----------------|
E|-0-------0-------|-2-------2-------|-3-------3-------|-3-------3---3---|

e|-------------------|-----------------|-------------------|-----------------|
B|-------1---0---(0)-|-------1---3---0-|---------0-------0-|-------0-------0-|
G|-----0-----0-------|-----2-----2-----|-----0h2-------2---|-----2-------2---|
D|---2---------------|---3-------------|---1---------1-----|---1-------1-----|
A|-3-------3---3-----|-----------------|-2---------2-------|-2-------2-------|
E|-------------------|-1-------1---1---|-------------------|-----------------|

Verse:
e|-----------------|-----------------|-----------------|-----------------|
B|-------0-------0-|-------0-------0-|-------0-------0-|-------3-------3-|
G|-----0-------0---|-----2-------2---|-----3-------3---|-----2-------2---|
D|---2-------2-----|---0-------0-----|---2-------2-----|---3-------3-----|
A|-----------------|-----------------|-----------------|-----------------|
E|-0-------0-------|-2-------2-------|-3-------3-------|-3-------3-------|

e|-----------------|-----------------|-----------------|-----------------|
B|-------1-------1-|-------1-------1-|-------0-------0-|-------0-------0-|
G|-----0-------0---|-----2-------2---|-----2-------2---|-----2-------2---|
D|---2-------2-----|---3-------3-----|---1-------1-----|---1-------1-----|
A|-3-------3-------|-----------------|-2-------2-------|-2-------2-------|
E|-----------------|-1-------1-------|-----------------|-----------------|

Chorus
e|-----------------|-----------------|-----------------|-----------------|
B|-------1-------0-|-------3-------3-|-------3-------3-|-------1-------1-|
G|-----2-------2---|-----2-------2---|-----0-------0---|-----0-------0---|
D|---2-------2-----|---0-------0-----|---0-------0-----|---2-------2-----|
A|-0-------0-------|-----------------|-----------------|-3-------3-------|
E|-----------------|-2-------2-------|-3-------3-------|-----------------|

e|-----------------|-------2-------2-|-----------------|-----------------|
B|-------1-------0-|-----3-------3---|-------3-------3-|-------1-------0-|
G|-----2-------2---|---2-------2-----|-----0-------0---|-----0-------2---|
D|---2-------2-----|-0-------0-------|---0-------0-----|---2-------1-----|
A|-0-------0-------|-----------------|-----------------|-3-------2-------|
E|-----------------|-----------------|-3-------3-------|-----------------|

e|-----------------|-----------------|-----------------|-----------------|
B|-------1-------0-|-------3-------3-|-------3-------3-|-------1-------1-|
G|-----2-------2---|-----2-------2---|-----0-------0---|-----0-------0---|
D|---2-------2-----|---0-------0-----|---0-------0-----|---2-------2-----|
A|-0-------0-------|-----------------|-----------------|-3-------3-------|
E|-----------------|-2-------2-------|-3-------3-------|-----------------|

e|-----------------|-------2-------2-|-----------------|-----------------|
B|-------1-------0-|-----3-------3---|-------3-------3-|-1-------0-------|
G|-----2-------2---|---2-------2-----|-----0-------0---|-0-------2-------|
D|---2-------2-----|-0-------0-------|---0-------0-----|-2-------1-------|
A|-0-------0-------|-----------------|-----------------|-3-------2-------|
E|-----------------|-----------------|-3-------3-------|-----------------|

Lyrics 

Verse 1:
Du hoerst gar nicht mehr auf zu reden, Kind.
Das hatten wir doch schon tausend Mal.
Warum faengst du wieder von vorne damit an?
Ich kann das wirklich nicht mehr hoern...
Oh, deine Zukunft ist so ungewiss,
Dein Leben voller Angst und Schiss, du fängst erst gar nichts an,
Denn es ist so gemuetlich und sicher,
Auf deiner Insel voller Leid, jaja...

Chorus:
Und jetzt schau dich an.
Und sag mir dann:
Denkst du wirklich, du waerst so interessant
Wenn du dich suhlst in deinem Schmerz?
Bla, bla, bla... Ist es wirklich so toll,
Hilflos zu sein? Du bist so groß und machst dich selbst so seltsam klein.
Du bist immer so fixiert auf das, was noch fehlt.
Und jetzt schau nicht so gequaelt - das sieht scheisse aus…

Verse 2:
Ich mein, das Leben ist nicht einfach,
doch ein bisschen was geht immer, du sagst, du hast alles versucht,
doch du versumpfst in deinem Zimmer, du kannst doch gehn wohin du willst,
du kannst gehn wohin du willst, doch du bleibst,
du bist sowas von feige und traege.
Sei doch ehrlich, sei doch ehrlich, sei doch ehrlich, sei doch einmal ehrlich...

Chorus

************************************

| /   slide up
| \   slide down
| h   hammer-on
| p   pull-off
| ~   vibrato
| +   harmonic
| x   Mute note
| b   Bend
| pb  Pre-bend
| br  Bend release
| pbr Pre-bend release
| brb Bend release bend

************************************
Tap to rate this tab
 
# A B C D E F G H I J K L M N O P Q R S T U V W X Y Z