Gisbert Zu Knyphausen - Melancholie tab

Tuning: Standard Capo 7th
Style: Fingerpicking


Verse 1
|--------------------------------------------------------------------------|
|-------3-------------3-1---------0-----0-----0----------------------------|
|-----0---0---0-----2-----0-----0---0-----0-----0-----0--------------------|
|---0-------0-----0-----------2-------2-----2-----2p0----------------------|
|--------------------------------------------------------------------------|
|-3-------------2-----------0----------------------------------------------|

Wo immer ich auch bin, du bist bei mir
Stehst da so selbstverliebt und arrogant und grinst mich an
Voller Genugtuung streust du eine Hand voll Zweifel in mein kleines Glueck. Ach, bitte nimm sie
Zurueck, Melancholie, nimm sie zurueck. Was hast du der 


|------------------------------------------------------------------|
|-----3-------1---------0------------------------------------------|
|-------0-------2-----0---0---0------------------------------------|
|---0-------0-------2-------0--------------------------------------|
|------------------------------------------------------------------|
|-3-------2-------0------------------------------------------------|

Menschheit jemals gutes gebracht, ausser
Musik und Kunst und billigen Gedichten? Hast du
Darueber schonmal nachgedacht? Ach so klappt das

|--------------------------------------------------------------------------|
|-------3-------------3-1---------0-----0-----0----------------------------|
|-----0---0---0-----2-----0-----0---0-----0-----0-----0--------------------|
|---0-------0-----0-----------2-------2-----2-----2p0----------------------|
|--------------------------------------------------------------------------|
|-3-------------2-----------0----------------------------------------------|

Nie, Melancholie, so klappt das nie. Aber du


Verse 2
|--------------------------------------------------------------------------|
|-------3-------------3-1---------0-----0-----0----------------------------|
|-----0---0---0-----2-----0-----0---0-----0-----0-----0--------------------|
|---0-------0-----0-----------2-------2-----2-----2p0----------------------|
|--------------------------------------------------------------------------|
|-3-------------2-----------0----------------------------------------------|

Weisst ja, eigentlich mag ich dich sehr gerne. Wenn du nur
Ab und zu mal deine Fresse halten wuerdest. Aber du
Zerredest mich solang bis ich nicht mehr weiss wo ich bin und was ich will. Komm, sei endlich
Still, Melancholie, sei endlich still


Interlude
|--------------------------------------------------------------------------|
|-----------1-------------0-------------3-----3-----3-1--0h1------1--------|
|---------2---2---2-----0---0---0-----2---2-----2---------------2---2----2-|
|-------2-------2-----0-------0-----0-------0-----0-----------2--------2---|
|-0h2-0----------------------------------------------------0---------------|
|-------------------3-------------2----------------------------------------|


|------------------------------------------------------------------|
|------0-------------3-----3-----3---------------------------------|
|----0---0---0-----2---2-----2-----2---0---------------------------|
|--0-------0-----0-------0-----0-----0-----------------------------|
|------------------------------------------------------------------|
|-3------------2---------------------------------------------------|

Was hast du der

|------------------------------------------------------------------|
|-----3-------1---------0------------------------------------------|
|-------0-------2-----0---0---0------------------------------------|
|---0-------0-------2-------0--------------------------------------|
|------------------------------------------------------------------|
|-3-------2-------0------------------------------------------------|

Menschheit jemals gutes gebracht, ausser
Musik und Kunst und billigen Gedichten? Hast du
Darueber schonmal nachgedacht? Ach f*** dich ins

|--------------------------------------------------------------------------|
|-------3-------------3-1---------0-----0-----0----------------------------|
|-----0---0---0-----2-----0-----0---0-----0-----0-----0--------------------|
|---0-------0-----0-----------2-------2-----2-----2p0----------------------|
|--------------------------------------------------------------------------|
|-3-------------2-----------0----------------------------------------------|

Knie, Melancholie, du kriegst mich nie klein. F*** dich

|------------------------------------|
|-------3-------------3-1------------|
|-----0---0---0-----2-----0----0-----|
|---0-------0-----0------------2-----|
|------------------------------2-----|
|-3-------------2--------------0-----|

Ins Knie, Melancholie, du kriegst mich nie klein. 
Tap to rate this tab
 
# A B C D E F G H I J K L M N O P Q R S T U V W X Y Z