Song name
# A B C D E F G H I J K L M N O P Q R S T U V W X Y Z

Gisbert Zu Knyphausen - Ein Seltsames Licht tab

------------------------------------------------------------------------------
			     Melancholie - Gisbert zu Knyphausen
------------------------------------------------------------------------------

Tuning: standard
Capo: 6th

Intro:	G | D/F# | Em | Em (2x)

e |-----------------|-----------------|-----------------|-----------------|
B |-------3---------|-------3-----1---|-0-----0-------0-|-------0---------|
G |---0-------0---0-|---2-------------|---0-------0-----|---0-------------|
D |-----0-------0---|-----0-----------|-----2-------2---|-----2-----------|
A |-----------------|-----------------|-----------------|---------0h2-----|
E |-3-------3-------|-2-----2-----2---|-0-------0-------|-0---------------|
    1 u 2 u 3 u 4 u   1 u 2 u 3 u 4 u   1 u 2 u 3 u 4 u   1 u 2 u 3 u 4 u

e |-----------------|-----------------|-----------------|-----------------|
B |-------3---------|-------3-----1---|-0-----0-------0-|-------0-------0-|
G |---0-------0---0-|---2-------------|---0-------0-----|---0-------0-----|
D |-----0-------0---|-----0-----------|-----2-------2---|-----2-------2---|
A |-----------------|-----------------|-----------------|-----------------|
E |-3-------3-------|-2-----2-----2---|-0-------0-------|-0-------0-------|
    1 u 2 u 3 u 4 u   1 u 2 u 3 u 4 u   1 u 2 u 3 u 4 u   1 u 2 u 3 u 4 u

 
VERSE 1:	
   G              D/F#          Em
Wo immer ich auch bin, du bist bei mir.
Stehst da, so selbstverliebt und arrogant und grinst mich an.
Voller Genugtuung streust du eine Hand voll Zweifel in mein kleines Glück.
Ach bitte nimm sie zurück. Melancholie, nimm sie zurück.


CHORUS 1:	
               | G                 D/F# |   Em
Was hast du der Menschheit jemals Gutes gebracht,
außer Musik und Kunst und billigen Gedichten?
Hast du darüber schonmal nachgedacht?
                   G           D/F#                Em
Ach so klappt das nie. Melancholie - so klappt das nie.


VERSE 2:

Du weißt ja, eigentlich mag ich dich sehr gerne,
Wenn du nur ab und zu mal deine Fresse halten würdest.
Aber du zerredest mich so lang bis ich nicht mehr weiß,
wo ich bin und was ich will.
komm sei endlich still. Melancholie - sei endlich still.


INTERLUDE:	
    Am                G                 D/F#           
e |-----------------|-----------------|-----------------|-----------------|
B |-----------1---0-|---------0-------|-------3-------3-|-------3-----1---|
G |-------2-------2-|-0---0-----0---0-|---2-------2-----|---2-------------|
D |---------2-------|-------------0---|-----0-------0---|-----2-----------|
A |-0h2-0-----------|-----------------|-----------------|-----------------|
E |-----------------|-3---3---3-------|-2-------2-------|-2---------------|
    1 u 2 u 3 u 4 u   1 u 2 u 3 u 4 u   1 u 2 u 3 u 4 u   1 u 2 u 3 u 4 u
    Am                G                 D/F#
e |-----------------|-----------------|-----------------|-----------------|
B |-0h1---1---0-----|---------0-------|-------3-------3-|-------3---------|
G |---2-------2-----|-0---0-----0---0-|---2-------2-----|---2-------2-----|
D |-----2-----------|-------------0---|-----0-------0---|-----0-------0---|
A |-0-------0-------|-----------------|-----------------|-----------------|
E |-----------------|-3---3---3-------|-2-------2-------|-2-------2-------|
    1 u 2 u 3 u 4 u   1 u 2 u 3 u 4 u   1 u 2 u 3 u 4 u   1 u 2 u 3 u 4 u


CHORUS 2:

Was hast du der Menschheit jemals Gutes gebracht,
außer Musik und Kunst und billigen Gedichten?
Hast du darüber schonmal nachgedacht?
Ach fick dich ins Knie
Melancholie - du kriegst mich nie klein.

Fick dich ins Knie
Melancholie - du kriegst mich nie klein.


  
Tap to rate this tab
# A B C D E F G H I J K L M N O P Q R S T U V W X Y Z