Song name
# A B C D E F G H I J K L M N O P Q R S T U V W X Y Z

Gisbert Zu Knyphausen - Verschwende Deine Zeit tab

-------------------------------------------------------------------------------
                             SONG NAME - Band Name
-------------------------------------------------------------------------------
Tabbed by:Horst100001
E-mail:

Tuning: standard, no capo!

Chords:

C:  032010
D:  054030
G:  300000 (reicht in diesem Lied aus)
E:  022100
Em: 022000
B7: 021200
Am: 002210

Intro: 

C, D, G, x3
C, B7, Em

e|----------------------------------------------------------------|
B|-----------1------1-------3-----3--------0----0-------0-----0---|
G|----------0------0-------0-----0--------0----0-------0-----0----|
D|----------------2-------------4-------------0-------------0-----|
A|----(2h)3---------------5---------------------------------------|
E|---------------------------------------3------------3-----------| X 3

e|---------------------------------------------------------------------|
B|-------1----1----1---1-------0---0---0---0-----0---0-----0----0------|
G|-----0-----0----0---0-------2---2---2---2-----0---0-----0----0-------|
D|---------2---------2-----------1-------1---------2----------2--------|
A|-2h3----------3------------2-------2---------------------------------|
E|---------------------------------------------0---------0-------------|


Strophen: 

C, D, G

e|--------------------------------------------------------------------|
B|-------1-----1-------3------3--------0-----0------0-----0-----------|
G|------0-----0-------0------0--------0-----0-----0-----0-------------|
D|---------2--------------4---------------0-----------0---------------|
A|-(2h)3-------------5------------------------------------------------|
E|---------------------------------3------------3---------------------|

Strophe 1:
Verschwende deine Zeit 
du wirst schon sehen wohin das führt
dieser ganze Geiz ist sowieso nicht wirklich geil
da leben ist ein Kopfschmerz 
und es wird zeit das du ihn spürst
hab keine Angst er ist sehr schnell wieder vorbei
und lauf ruhig deine Runden 
du wirst schon sehen wohin sie führen
doch dein Hirn mein Herz wird dadurch auch nicht leichter
hör mir zu Kleines hör mir zu Kleines hör mir zu
ich will dein letztes Jagdwild sein.


Bridge 1 (Laadaada...):

Em, Am, D, G
Em, Am, D, G, C, G, D

e|---------------------------------------------------------------------|
B|----0---0----0---0-----1---1-----1---1-----3------3-----3---3--------|
G|---0---0----0---0-----2---2-----2---2-----0-----0------0---0---------|
D|------2--------2---------2---------2----------4-----------4----------|
A|---------------------0--------0----------5-----------5---------------|
E|--0--------0---------------------------------------------------------|


e|---------------------------------------------------------------------|
B|----0----0----0----0------0---0----0---0----1----1----3---3---3----3-|
G|---0----0----0----0------0---0----0---0----2----2----0---0---0----0--|
D|-------0---------0----------2--------2---------2--------4--------4---|
A|------------------------------------------0---------5-------5--------|
E|--3---------3-----------0--------0-----------------------------------|


e|---------------------------------------------------------------------|
B|----3-----3----3---3-----0----0------1---1----0---0------3---3-------|
G|---0-----0----0---0-----0----0------0---0----0---0------0---0--------|
D|-------4---------4----------0----------2--------0----------4---------|
A|--5----------5-------------------2h3-----------------4h5-------------|
E|----------------------3---------------------3------------------------|


e|---------------------------------------------------------------------|
B|----0---0-----0----0-------------------------------------------------|
G|---0---0-----0----0--------------------------------------------------|
D|------0----------0---------------------------------------------------|
A|---------------------------------------------------------------------|
E|--3---------3--------------------------------------------------------|


Strophe 2:

Und folge deinem Glauben 
du sagst du weißt wohin er führt 
wenn er dir hilft dann knie doch nieder, bitte sehr
und renn ruhig nach dem Glück, 
der alte Brecht hats schon gesagt
du rennst und rennst und das glück rennt hinterher
und verbrenne deine Zweifel sie ham versucht dich zu verführen 
nimm deine Sehnsucht sperr sie ein und bind sie fest
du musst sie regelmäßig füttern 
doch bleib nicht zu lang mit ihr allein 
die lullt dich ein und gibt dir liebend gern den Rest.

Bridge 2 (selbes Anschlagschema, wie die ganze Zeit):

Em                             Am
und der Mond der glotzt und schweigt


was soll er auch sonst tun

      D                                 G
und ein mensch sitzt still und sagt sich leis
                
                C
so ist das leben, 

E                                      Am (anschlagen)
es tobt und faucht und schreit und haut dir eine rein

        D
und du lachst und weinst und trinkst 


und kackst und schläfts und schon ist es vorbei



e|---------------------------------------------------------------------|
B|----0---0----1----1----0---0------3---3---0---0----------------------|
G|---0---0----0----0----0---0------0---0---0---0-----------------------|
D|------0---------2--------0----------4-------0------------------------|
A|-----------h3-----------------4h5------------------------------------|
E|--3------------------3------------------3----------------------------|

Strophe 3:
ich singe meine Lieder wohin das führt wir werden sehn 
sie sind meine Art mich vor dem Leben zu verneigen
und ich verrenk mir mein Gehirn bloß um zu sagen was ich will
das ist nicht viel aber auf jeden Fall besser als Schweigen



Tap to rate this tab
 
# A B C D E F G H I J K L M N O P Q R S T U V W X Y Z