Song name
# A B C D E F G H I J K L M N O P Q R S T U V W X Y Z

Git Fresh Aka Deepside - Booty Music tab

Help us improve GuitareTab! Take a short survey!
Booty Music - Deepside
Try nyo, magkatunog naman sila ehh... hehehe... c",)
Para sa mga reaksyon kung meron, mag-abala kayo! nyahaha...
paki-mail sa toy_fb@yahoo.com
Tenx! Enjoy! peace!

Intro:
e|-----------------------------------------------|
B|-----------------------------------------------|
G|-------11-------11-----------------------------|
D|-------------------12---------11------12-11-14-|
A|----12-------12-------12---12------12----------|
E|-10-------10-------------9-------9-------------|


e|-----------------------------------------------|
B|-----------------------------------------------|
G|-------11-------11--------------------9-11-14--|
D|-------------------12---------11---------------|
A|----12-------12-------12---12------12----------|
E|-10-------10-------------9-------9-------------|


e|-----------------------------------------------|
B|-----------------------------------------------|
G|-------11-------11-----------------------------|
D|-------------------12---------11------12-11-14-|
A|----12-------12-------12---12------12----------|
E|-10-------10-------------9-------9-------------|


e|-----------------------------------------------|
B|-----------------------------------------------|
G|-------------------------9---------------------|
D|-------12----11----11-11---11------14--14------|
A|----12----------12-12-12------12---12--12------|
E|-10-------10-------9--9----------9-(9)-(9)-----|
Related for Booty Music tab