Song name
# A B C D E F G H I J K L M N O P Q R S T U V W X Y Z

Giuseppe Antonio Brescianello - Partita In Em - 4 Gigue tab

Giuseppe Antonio Brescianello. Partita in Em, 4 Giga. Time signature: 6:8
Tab by Francisco Galera.

   |  |  |  |  |  |   ||| ||| |  |  |  |  |  |   ||| |||  |  |  |  |  |  |
E|-------0--3--2--0-|-2------|------2--5--3--2-|-3---0--|----7-------------|
B|----0-------------|-----0--|---4-------------|--------|------10--8--7----|
G|------------------|--------|-----------------|--------|----------------9-|
D|-2----------------|-1------|-----------------|--------|------------------|
A|------------------|--------|-2---------------|--------|-7----------------|
E|------------------|--------|-----------------|-0------|------------------|

   |  |  |  |  |  |   |  |  |  |  |  |   |  |  |  |  |  |   |  |  |  |  |  |
E|----8--7--8--7--8-|----5--3--2--0----|----7--5--7--5--7-|------------------|
B|------------------|----------------3-|------------------|----3--1--0-------|
G|------------------|------------------|-0----------------|-------------2--0-|
D|-7----------------|-4----------------|------------------|------------------|
A|------------------|------------------|------------------|-2----------------|
E|------------------|------------------|------------------|------------------|

   |  |  |  |  |  |   |  |  |  |  |  |   |  |  |  |  |  |   |  |  |  |  |  |
E|----0-------------|----2--0----------|----3--2--0-------|----5--3--2--0----|
B|-------3--1--0----|----------3--1--0-|-------------3--1-|----------------3-|
G|----------------2-|------------------|------------------|------------------|
D|------------------|-0----------------|-2----------------|-4----------------|
A|-3----------------|------------------|------------------|------------------|
E|------------------|------------------|------------------|------------------|

   | | |  | | |   |  |  |  |  |  |   | | | | | |  |  |  |  |  |  |
E|-7---2--3-----|------------------|------------|-------------4--7-|
B|------------1-|-0----------------|------------|----------5-------|
G|-0------------|----2--0-----0----|-0======---*|*------4----------|
D|-----1--2-----|-0--------0-----4-|---0-------*|*---6-------------|
A|------------3-|------------------|-----2------|------------------|
E|--------------|------------------|-------3----|-0----------------|

   ||| |||  |  |  |  |  |  |   ||| |||  |  |  |  |  |  |   ||| |||
E|-8---4--|-------5-----5--4-|-5------|----------------5-|-7------|
B|-----3--|----5-------------|--------|-------3-----7----|-----7--|
G|--------|------------------|-----2--|----2-------------|-0---5--|
D|--------|------------------|--------|----------0-------|--------|
A|-0---2--|-3----------------|-0------|------------------|-----0--|
E|--------|----------0-------|--------|-2----------------|--------|

   |  |  |  |  |  |   ||| |||  |  |  |  |  |  |   |  |  |  |  |  |
E|-------3-----3--2-|-3------|----7--5--------0-|----8--7--8--7--8-|
B|----3-------------|--------|----------8--7----|------------------|
G|------------------|-----0--|------------------|------------------|
D|----------0-------|--------|------------------|-7----------------|
A|-2----------------|--------|-7----------------|------------------|
E|------------------|-3------|------------------|------------------|

   |  |  |  |  |  |   |  |  |  |  |  |   |  |  |  |  |  |   |  |  |  |  |  |
E|----5--3--2--0----|----7--5--7--5--7-|----3--2--0-------|----5--3--5--3--5-|
B|----------------3-|------------------|-------------3--1-|------------------|
G|------------------|-0----------------|------------------|------------------|
D|-4----------------|------------------|-2----------------|-4----------------|
A|------------------|------------------|------------------|------------------|
E|------------------|------------------|------------------|------------------|

   |  |  |  |  |  |   |  |  |  |  |  |   |  |  |  |  |  |   |  |  |  |  |  |
E|----2--0----------|----3-------------|----5-------------|----7-------------|
B|----------4--2--0-|-------4--5--4--5-|-------4--5--4--5-|-------4--5--4--5-|
G|------------------|------------------|------------------|-0----------------|
D|-1----------------|-2----------------|-4----------------|------------------|
A|------------------|------------------|------------------|------------------|
E|------------------|------------------|------------------|------------------|

   |  |  |  |  |  |   |  |  |  |  |  |   | | |  | | |   |  |  |  |  |  |
E|----8-----0-----0-|----8--5-----5--0-|--------0---2-|-3--2--0===--0----|
B|-------6-----6----|----------6-------|-4---0------0-|-0--------------4-|
G|------------------|------------------|--------------|------------------|
D|-7----------------|------------------|------------1-|-2----------------|
A|------------------|-0----------------|-2---0--------|-------0--2-------|
E|------------------|------------------|--------3-----|------------------|

   |  |  |  |||
E|-0-------------||
B|----0----------||
G|-------0------*||
D|----------2---*||
A|---------------||
E|-0-------------||

Tap to rate this tab
# A B C D E F G H I J K L M N O P Q R S T U V W X Y Z