Song name
# A B C D E F G H I J K L M N O P Q R S T U V W X Y Z

Giuseppe Antonio Brescianello - Partita In Em - 3 Siciliana tab

Giuseppe Antonio Brescianello. Partita in Em, 3 Siciliana. Time signature: 6:8
Tab by Francisco Galera.

   | |  |   |   |     |      | |  |   |   |   |   |  |  |   |   |     |
E|-0--2-0---7---5--3--2--0-|------2-------------|-----------2---0----------|
B|-0--------0--------------|-4--5---------------|-----0------------4--2--0-|
G|-0--------0--------------|----------4---------|-2-----2------------------|
D|-------------------------|--------------4-----|-1---------1--------------|
A|-------------------------|-2=========-------2-|--------------------------|
E|-0--------0--------------|--------------------|--------------------------|

   | |  |   |   |   |   |  |  |   |   |  |   |    |     |     |   |   |
E|--------------------|--------------------|------------2----(5---------|
B|--------------------|-1---0-1---1---0--1-|------1--------1-)7-------1-|
G|-0----0-------------|-2---------2--------|----2----2-------(5-------2-|
D|----4-----2---------|--------------------|-0--------------------------|
A|--------------2-----|-0------------------|-----------------)5---------|
E|-0=========-------0-|-------3---2------0-|--------------------------2-|

   |  |  |   |  |  |  |  |   |  | | |    |  |  |   |  |  |   | |  |  |  |  |
E|-------3-----------|----------------|------------1---0---|---------------0-|
B|-0---3-----0---1---|----------------|--0---1-0---3-----3-|-1--0-1----------|
G|-0---------------2-|-0-------------*|*-1---------1-------|---------2-------|
D|-----------------0-|-----0---------*|*-------------------|-----------------|
A|-------2---3-------|-------2--------|--------------------|-0-------0--2--3-|
E|-3-----------------|-3--------3-----|--0---------0-------|-----------------|

               3     3
   |  |  |   ..... .....         | |  |tr | |  |   |    |    |   |  |   |  
E|-1---0-1---1-0------------1--|-0----1---3----8-|----5-3--------0---1----|
B|---------------3-1-0---------|-----------------|---------6-5-3-3------3-|
G|---------------------2-0-----|-----------------|------------------------|
D|-0---------------------------|------0---2------|-3----------------------|
A|-------3---2-----------2-----|-3---------------|---------------3--------|
E|-----------------------------|-----------------|------------------------|

   |  |  |  |||   |  |  |  |  |  |   | |  |  | |  |   |  |  |  |  |   |
E|--------------|--------------6---|----------------|--------------8----|
B|-1------------|-2---3-2--2-----2-|-3----5--8--5---|-4---5-4--4------4-|
G|-----0--------|-2----------------|-2------------7-|-------------------|
D|-------2------|------------------|---------0------|-------------------|
A|-3--------3---|-0-----0----------|------4---------|-2--------0--------|
E|--------------|----------3-------|-1--------------|-------------------|

   | | |  |  | |   | |  |  |     |    |     | |  |  |   |   |
E|-0---2--3-2--0-|---------8--7--5--------|----0-2------------|
B|-0-------------|-6--5-6-----------8-7-5-|-4-------0---------|
G|---------------|-5----------------------|-------------------|
D|-----1--2------|------------------------|-------------4-----|
A|---------------|-0-------0--------------|-2-------2-------2-|
E|-3-------------|------------------------|-------------------|

   |  |  |  |  |  |   |    |   |   |  |  |   |  |  |  |  |  |   | |  | | | |
E|------------------|----------2---5-----2-|-3---2-0--0---0---|-0------------||
B|-----0--------0---|------4-----4-4-----0-|----------------4-|-0--0---------||
G|-2-----2--2-----2-|----2---2-----4-------|------------------|-0----0------*||
D|-------2--1-------|--------------4-----1-|------------------|--------2----*||
A|----------------3-|-2--------------------|-------0--2-------|--------------||
E|-2----------------|----------------------|-0----------------|-0------------||

Tap to rate this tab
 
# A B C D E F G H I J K L M N O P Q R S T U V W X Y Z