Song name
# A B C D E F G H I J K L M N O P Q R S T U V W X Y Z

Giuseppe Antonio Brescianello - Partita In Em - 1 Entree tab

Giuseppe Antonio Brescianello. Partita in Em, 1 Entree. Time signature: 2:4
Tab by Francisco Galera.

                                                       3
   |     |            |      |         |      |      ......   |       |
E|-0----------------|----------------|-0--0---0--2--3--2--0-|-----0-2---------|
B|-0--0--0----------|----------0---4-|-0----4---------------|---4-----0-------|
G|-0-----------0----|-0----------6---|-0--------------------|-----------------|
D|----------7-----4-|---4-5----------|----------------------|-----------------|
A|-------6----------|--------7-------|-----------------0----|-2---------0-----|
E|-0----------------|-0--------------|-0--------------------|-------------3-2-|

   |           |         |           |          |          |         |     |
E|---------------------|-0--------------------|---0--2--3------0---|-0--------|
B|----0--0--0----0---0-|----0--0--0-----0---0-|--------------0---4-|-0--------|
G|---------------------|----------------------|--------------------|-0-------*|
D|-------2-----1-------|-------2-----1--------|--------------------|-2-------*|
A|-----------------2---|------------------2---|-3----0-----2-------|----2-----|
E|-0-------------------|-0--------------------|--------------------|-------0--|

                                       3
   |       |            |         |  .....   |     |         |        |
E|-----2---2--0-------|--------------------|-0-3-2-0-------|------------------|
B|-0-------------3--2-|-3---2--3--0--0-2-3-|-0-------3-2-0=|==-----2--2-------|
G|*-------------------|--------------------|-0-------------|---3-4------------|
D|*-------------------|--------------------|---------------|----------4-2-0---|
A|-2-------1----------|-2------------------|---------------|----------------4-|
E|--------------------|--------------------|-0-------------|-2----------------|

   |           |           |           |          |        |       |     |
E|----2--2--2-----2----2-|----2-----2-----2---2-|----------------|------------|
B|-----------------------|----------------------|---3-2--0====---|-0----------|
G|-----------------------|----------------------|--------------3-|------------|
D|-----------------------|-0--------------------|----------------|------------|
A|-2-----------1---------|-------2-----1--------|-2--------------|-2--0-------|
E|-------------------2---|------------------2---|-----0----2-----|-------3--2-|

   |           |         |           |          |     |       |       |
E|-7--0--0--0--0-0-0-0-|-8--0--0--0--0--0---8-|-7-5-3-2-3-0=|==---0-2---------|
B|---------------------|----------------------|-------------|---4-----0-------|
G|---------------------|----------------------|-------------|-----------------|
D|---------------------|----------------------|-------------|-----------------|
A|---------------------|-0-----2-----3----0---|-------0-----|-2-------2-0-----|
E|-0-----2-----3---0---|----------------------|-3-----------|-------------3-2-|

   |          |         |          |         |         |          |      |
E|--------------------|-0------------------|----0-2-3-------0---|-0----------||
B|----0--0--0---0---0-|----0--0--0---0---0-|--------------0---4-|-0----------||
G|--------------------|--------------------|--------------------|-0---------*||
D|-------2----1-------|-------2----1-------|--------------------|-----------*||
A|----------------2---|----------------2---|-3----0----2--------|----2-------||
E|-0------------------|-0------------------|--------------------|-0------0---||

Tap to rate this tab
# A B C D E F G H I J K L M N O P Q R S T U V W X Y Z