Song name
# A B C D E F G H I J K L M N O P Q R S T U V W X Y Z

Giuseppe Verdi - Va Pensiero tab

You will have to figure out the timing and dynamics on your own since I'm lazy and 
want to write them.
Enjoy.

(/) Slide Up  (\) Slide Down  (h) Hammer On  (p) Pull Off  (b) Bend (r) Release (v) Vibrato

E|----------------------------------------------------------------------------------|
B|-11----------14-14-11-------------------------------11-11-9-11-9------------------|
G|----13-11-------------11-11-10-13-15b16----------11--------------11-10------------|
D|----------11----------------------------11-11-11----------------------------------|
A|----------------------------------------------------------------------------------|
E|----------------------------------------------------------------------------------|

E|----------------------------------------------------------------------------------|
B|-11----------14-14-11-------------------------------11-14r12----------11----------|
G|----13-11-------------11-11-10-13-15b16----------11----------13-11-10----13-11----|
D|----------11----------------------------11-11-11----------------------------------|
A|----------------------------------------------------------------------------------|
E|----------------------------------------------------------------------------------|

E|----------------------------------------------------------------------------------|
B|-11-11----13-11-------11----------------11-13-14-13-11-11-------11----------------|
G|-------13-------13-11----13-11-10-11/13-------------------13-12----13-11-10-------|
D|----------------------------------------------------------------------------13-11-|
A|----------------------------------------------------------------------------------|
E|----------------------------------------------------------------------------------|

E|----------------------------------------------------------------------------------|
B|-11----------14-14-11-------------------------------11/14\12----------11----------|
G|----13-11-------------11-11-10-13-15b16----------11----------13-11-10----13-11----|
D|----------11----------------------------11-11-11----------------------------------|
A|----------------------------------------------------------------------------------|
E|----------------------------------------------------------------------------------|

E|----------------------------------------------------------------------------------|
B|-14-14-16b18-18-18-18-18-16-14-13-11-13b14r---------------------------------------|
G|---------------------------------------------13-13-13-11-11-11-11-11-15\13-10-----|
D|----------------------------------------------------------------------------------|
A|----------------------------------------------------------------------------------|
E|----------------------------------------------------------------------------------|

E|----------------------------------------------------------------------------------|
B|-------12-12-12-10-10-10-9----------12-12-12-10-10-10-9-9-11----------14-14-11----|
G|-------------------------------------------------------------13-11----------------|
D|-11-11---------------------11-11-11--------------------------------11-------------|
A|----------------------------------------------------------------------------------|
E|----------------------------------------------------------------------------------|

E|----------------------------------------------------------------------------------|
B|----------------------------11-14-11----------11-------11-11-11-11-11/16-16-16----|
G|-11-10-13-15b16----------11----------13-11-10----13-11----------------------------|
D|----------------11-11-11----------------------------------------------------------|
A|----------------------------------------------------------------------------------|
E|----------------------------------------------------------------------------------|

E|----------------------------------------------------------------------------------|
B|-14----------------11-11-11-11-11/16-16-16-16-14----------------------------------|
G|----16-15-16-13-11-------------------------------16-15-16-13-11-11-11-11-11-------|
D|----------------------------------------------------------------------------------|
A|----------------------------------------------------------------------------------|
E|----------------------------------------------------------------------------------|
Tap to rate this tab
 
# A B C D E F G H I J K L M N O P Q R S T U V W X Y Z