Song name
# A B C D E F G H I J K L M N O P Q R S T U V W X Y Z

Givetakegive - Good Times Remain tab

-----------------------------------------------------------------
Good Times Remain - GiveTakeGive (RP)
-----------------------------------------------------------------
Tabbed by: javi404
Email: exloop9955@yahoo.com

90% correct to, post na lang kayo ng comments kung may correction kayo, thanks!
galing talaga ng GTG and EIB!! :D

Tuning: Standard

Intro:

e|-----------17--------------------------------------------------|
B|-15-17-19-----19-19-19\17-17-----------------------------------|
G|---------------------------------------------------------------|
D|---------------------------------------------------------------|
A|---------------------------------------------------------------|
E|---------------------------------------------------------------|


e|-----------17--------------------------------------------------|
B|-15-17-19-----19-19-17-19\17-----------------------------------|
G|---------------------------------------------------------------|
D|---------------------------------------------------------------|
A|---------------------------------------------------------------|
E|---------------------------------------------------------------|

e|-----------17--------------------------------------------------|
B|-15-17-19-----19-19-19\17-17-----------------------------------|
G|---------------------------------------------------------------|
D|---------------------------------------------------------------|
A|---------------------------------------------------------------|
E|---------------------------------------------------------------|

e|-----------/17--17\--------------------------------------------|
B|-15-17-19------------------------------------------------------|
G|---------------------------------------------------------------|
D|---------------------------------------------------------------|
A|---------------------------------------------------------------|
E|---------------------------------------------------------------|


Verse:
    D    B    A    G
e|--0----0----0----0---------------------------------------------|
B|--3----3----3----3---------------------------------------------|
G|--2----2----2----0---------------------------------------------|
D|--0----0----2----0---------------------------------------------|
A|--x----2----0----2---------------------------------------------|
E|--x----x----x----3---------------------------------------------|


Refrain:
    G    D    A    G
e|--0----0----0----0---------------------------------------------|
B|--3----3----3----3---------------------------------------------|
G|--0----2----2----0---------------------------------------------|
D|--0----0----2----0---------------------------------------------|
A|--2----x----0----2---------------------------------------------|
E|--3----x----x----3---------------------------------------------|


Chorus:
    D    A    B    G
e|--0----0----0----0---------------------------------------------|
B|--3----3----3----3---------------------------------------------|
G|--2----2----2----0---------------------------------------------|
D|--0----2----0----0---------------------------------------------|
A|--x----0----2----2---------------------------------------------|
E|--x----x----x----3---------------------------------------------|


Instrumental:

e|--------------12----15-14--15----------------------------------|  
B|-----------15----15-----------15-17----------------------------|
G|-11-12-14------------------------------------------------------|    
D|---------------------------------------------------------------|
A|---------------------------------------------------------------|
E|---------------------------------------------------------------|

(4 times, 2nd guitar plays Verse chords)

e|-14------------------19-17-17/19-17----------------------------|
B|-------14-15---------------------------------------------------|
G|---------------------------------------------------------------|
D|---------------------------------------------------------------|
A|---------------------------------------------------------------|
E|---------------------------------------------------------------|

(4 times, 2nd guitar plays Chorus chords)

| /  slide up
| \  slide down
| h  hammer-on
| p  pull-off
| ~  vibrato
| +  harmonic
| x  Mute note
Tap to rate this tab
 
# A B C D E F G H I J K L M N O P Q R S T U V W X Y Z