Song name
# A B C D E F G H I J K L M N O P Q R S T U V W X Y Z

Gladiator - Laska tab

-------------------------------------------------------------------------------
                             LÁSKA - Gladiátor
-------------------------------------------------------------------------------




e|5-4-5-4-5-7-5-4------7-7-7-7-7-9-7-5-4--------------|
B|----------------------------------------------------|
G|----------------------------------------------------|
D|----------------------------------------------------|
A|----------------------------------------------------|
E|----------------------------------------------------|

e|4-4-5-4-0-----4-4-4-4-2-4-2-4-7---------------------|
B|----------0-0---------------------------------------|
G|----------------------------------------------------|
D|----------------------------------------------------|
A|----------------------------------------------------|
E|----------------------------------------------------|

e|9-7-9-7-9-11-12-11-7--------------------------------|
B|----------------------------------------------------|
G|----------------------------------------------------|
D|----------------------------------------------------|
A|----------------------------------------------------|
E|----------------------------------------------------|

e|9-7-9-7-9-11-12-14----5-4-5-4-----------------------|
B|-------------------12-------------------------------|
G|----------------------------------------------------|
D|----------------------------------------------------|
A|----------------------------------------------------|
E|----------------------------------------------------|

e|9-9-9-7-9-7-9-7-9-11-12-11-7-4-4-5-4----------------|
B|----------------------------------------------------|
G|----------------------------------------------------|
D|----------------------------------------------------|
A|----------------------------------------------------|
E|----------------------------------------------------|

e|4-4-5-4-5-4-5-4-5-4-0-0-0---------------------------|
B|----------------------------------------------------|
G|----------------------------------------------------|
D|----------------------------------------------------|
A|----------------------------------------------------|
E|----------------------------------------------------|
Tap to rate this tab
# A B C D E F G H I J K L M N O P Q R S T U V W X Y Z