Song name
# A B C D E F G H I J K L M N O P Q R S T U V W X Y Z

Glamour Of The Kill - Feeling Alive tab

-------------------------------------------------------------------------------
			Feeling Alive - Glamour of the Kill
-------------------------------------------------------------------------------
Tabbed by: Rogue00

Tuning: C Sharp

This is my first tab so there may be some mistakes so if you find any please message me 
with any corrections :)


Intro:

(Rhythm)                                   *
D|--------------------------------------------------------------------------|
A|--------------------------------------------------------------------------|
F|--------------------------------------------------------------------------|
C|-000-777-333-555------000-777-333-555------000-777-333-555------8----10---|
G|-000-555-333-333------000-555-333-333------000-555-333-333------8-X8-10-X8|
C|-000-----333-----5535-000-----333-----5535-000-----333-----5535-8----10---|
   ...     ...          ...     ...          ...     ...

(Lead)                 *
|---------------------------------------------------------------------13----|
|-------------------------1010--1010--1010--1010-------------------b12--12~-|
|-----------------------b12---b12---b12---b12---1210--------10b1210---------|
|-000-777-333-555-----------------------------------12101012----------------|
|-000-555-333-333-----------------------------------------------------------|
|-000-----333-----5535------------------------------------------------------|
  ...     ...

Verse:
(Both Guitars)
|------------------------------------------------------------------|--------|
|------------------------------------------------------------------|--------|
|------------------------------------------------------------------|--------|
|-----------------------------------------88888888-1010101010101010|X2------|
|---55--33-------55--33-------55--33------88888888-1010101010101010|--------|
|-00--33--5535-00--33--5535-00--33--5535--88888888-1010101010101010|--------|
  ..  ..       ..  ..       ..  ..

Chorus:
(Both Guitars)
|---------------------------------------------------------------------------|
|---------------------------------------------------------------------------|
|---------------------------------------------------------------------------|
|-77777-33333-33333-55555-77777-33333-88888888-1010101010101010-------------|
|-55555-33333-11111-33333-55555-33333-88888888-1010101010101010-------------|
|-------33333-------------------33333-88888888-1010101010101010-------------|

|---------------------------------------------------------------------------|
|---------------------------------------------------------------------------|
|---------------------------------------------------------------------------|
|-77777-33333-33333-55555-77777-33333---------------------------------------|
|-55555-33333-11111-33333-55555-33333---------------------------------------|
|-------33333-------------------33333-630630630603630-----------------------|

(Rhythm)                                  *
|---------------------------------------------------------------------------|
|---------------------------------------------------------------------------|
|---------------------------------------------------------------------------|
|-000-777-333-555------000-777-333-555------000-777-333-555------8----10----|
|-000-555-333-333------000-555-333-333------000-555-333-333------8-X8-10-X8-|
|-000-----333-----5535-000-----333-----5535-000-----333-----5535-8----10----|
  ...     ...          ...     ...          ...     ...

(Lead)                                *
|---------------------------------------------------------------------------|
|----------------------------------------1010--1010--1010--1010-------------|
|--------------------------------------b13---b13---b13---b13---1210---------|
|-000-777-333-555-------000-777-333--------------------------------12101012-|
|-000-555-333-333-------000-555-333-----------------------------------------|
|-000-----333-----5535--000-----333-----------------------------------------|
  ...     ...           ...     ...

|---------------------------------------------------------------------------|
|---------------------------------------------------------------------------|
|101210---------------------------------------------------------------------|
|------12101210-------------------------------------------------------------|
|--------------12101210-----------------------------------------------------|
|----------------------1210/------------------------------------------------|

Verse 2:
(Both Guitars)
|---------------------------------------------------------------------------|
|---------------------------------------------------------------------------|
|---------------------------------------------------------------------------|
|-------------------88888888-1010101010101010-------------------------------|
|-0000--0000--0000--88888888-1010101010101010-------------------------------|
|-0000--0000--0000--88888888-1010101010101010-------------------------------|
  ....  ....  ....

|---------------------------------------------------------------------------|
|---------------------------------------------------------------------------|
|---------------------------------------------------------------------------|
|-----------------------------------------88888888-1010101010101010---------|
|---55--33-------55--33-------55--33------88888888-1010101010101010---------|
|-00--33--5535-00--33--5535-00--33--5535--88888888-1010101010101010---------|
  ..  ..       ..  ..       ..  ..

Chorus 2:
(Both Guitars)
|---------------------------------------------------------------------------|
|---------------------------------------------------------------------------|
|---------------------------------------------------------------------------|
|-77777-33333-33333-55555-77777-33333-88888888-1010101010101010-------------|
|-55555-33333-11111-33333-55555-33333-88888888-1010101010101010-------------|
|-------33333-------------------33333-88888888-1010101010101010-------------|

|---------------------------------------------------------------------------|
|---------------------------------------------------------------------------|
|---------------------------------------------------------------------------|
|-77777-33333-33333-55555-77777-33333---------------------------------------|
|-55555-33333-11111-33333-55555-33333---------------------------------------|
|-------33333-------------------33333-630630630603630-----------------------|


(Rhythm)                     *
|------------------------------|--------------------------------------------|
|------------------------------|--------------------------------------------|
|------------5--------------5--|--------------------------------------------|
|-77-57/--33-35--77-57/--33-35-|-X2-7-7-7-7~--------------------------------|
|-55-35/--11--3--55-35/--11--5-|----5-5-5-5~--------------------------------|
|------------------------------|--------------------------------------------|

(Lead)
 *
|-------13--12131210------------------1618---1213121315131513b15b17~--------|
|b1310b13-13--------1310b1310-b18b20b18---b18-------------------------------|
|---------------------------------------------------------------------------|
|---------------------------------------------------------------------------|
|---------------------------------------------------------------------------|
|---------------------------------------------------------------------------|

(Both Guitars)
|----------------------|----------------------------------------------------|
|----------------------|----------------------------------------------------|
|----------------------|----------------------------------------------------|
|-000-777-333-555------|-X3-------------------------------------------------|
|-000-555-333-333------|-----00-00-00-00-0----------------------------------|
|-000-----333-----5535-|-----00-00-00-00-0----------------------------------|
  ...     ...                .. .. .. .. .

Chorus:
(Both Guitars)
|---------------------------------------------------------------------------|
|---------------------------------------------------------------------------|
|---------------------------------------------------------------------------|
|-77777-33333-33333-55555-77777-33333-88888888-1010101010101010-------------|
|-55555-33333-11111-33333-55555-33333-88888888-1010101010101010-------------|
|-------33333-------------------33333-88888888-1010101010101010-------------|

|---------------------------------------------------------------------------|
|---------------------------------------------------------------------------|
|---------------------------------------------------------------------------|
|-77777-33333-33333-55555-77777-33333---------------------------------------|
|-55555-33333-11111-33333-55555-33333---------------------------------------|
|-------33333-------------------33333-630630630603630-----------------------|

Outro:
(Both Guitars)
|---------------------------------------------------------------------------|
|---------------------------------------------------------------------------|
|----------------------------55---------------------------------------------|
|--------------------------7733---------------------------------------------|
|--------------------------55----------------------------543210-------------|
|630630630-00-00-630630630-----630630630-00-00-630630630-543210-------------|
           .. ..                         .. ..           ......

|---------------------------------------------------------------------------|
|---------------------------------------------------------------------------|
|----------------------------55----------------------------55---------------|
|--------------------------7733--------------------------3333-77-57/--------|
|--------------------------55----------------------------11---55-35/--------|
|630630630-00-00-630630630-----630630630-00-00-630630630--------------------|
           .. ..                         .. ..

************************************

| /   slide up
| \   slide down
| h   hammer-on
| p   pull-off
| ~   vibrato
| +   harmonic
| x   Mute note
| b   Bend
| pb  Pre-bend
| br  Bend release
| pbr Pre-bend release
| brb Bend release bend

************************************
Tap to rate this tab
 
# A B C D E F G H I J K L M N O P Q R S T U V W X Y Z