Song name
# A B C D E F G H I J K L M N O P Q R S T U V W X Y Z

Glaskas - Goeiemore tab

Help us improve GuitareTab! Take a short survey!
-------------------------------------------------------------------------------
			     Goeiemore - Glaskas
-------------------------------------------------------------------------------
Tabbed by: Reynardl
Email: reynardlotriet@hotmail.com

Tuning: EADGBe

e|---------------------------------------3-3-2-3---3-3-2----3-3-2----3-3-2-3-| 
B|---3--3-3--3---3--3-3--3---3--3-3--3---3-3-3-3---3-3-3-3--3-3-3-3--3-3-3---|
G|---0--0-0--0---0--0-0--0---0--0-0--0---2-2-2-----------0--------0----------|
D|-------------------------------------0-----------------------------------0-|
A|-------------2----2------3----3------------------------2--------3----------|
E|-3----3-----------------------------------------3--------------------------|

e|---3---0h3----2--0-3-3---|
B|-3---3-----3--3----------|
G|--------------2----------|
D|--------------0----------|
A|-------------------------|
E|-----------------------0-|


| /  slide up
| \  slide down
| h  hammer-on
| p  pull-off
| ~  vibrato
| +  harmonic
| x  Mute note
===============================================================================
Related for Goeiemore tab