Glaskas - Die Liedjie Oor Die Meisie Ek Wil Jou He tab

Artist: Glaskas
Song: Die Liedjie Oor Die Meisie(Ek Wil Jou He) 

G  = (320003) or (355xxx)
Am = (x02210) or (577xxx)
D  = (xx0232) or (x577xx)
C  = (x32010) or (x355xx)
Em = (022000) or (x799xx)

Riff1
|--------------------------------------------------| 
|--------------------------------------------------|  
|--------5-----4-----0-----------5-----4-----0-----| 
|--5--5-----5-----5-----5--7--7-----7-----7-----0--| 
|--------------------------------------------------| 
|--------------------------------------------------| 

|--------------------------------------------------|
|--------------------------------------------------|
|--------5-----4-----0-----------5-----4-----0--0--|
|--------------------------------------------------|
|--7--7-----7-----7-----7--5--5-----5-----5--------|
|--------------------------------------------------|

|--------------------------------------------------| 
|--------------------------------------------------|  
|--------7-----5-----4-----------7-----5-----4-----| 
|--5--5-----5-----5-----5--7--7-----7-----7-----0--| 
|--------------------------------------------------| 
|--------------------------------------------------| 

|-----------------------------------------------------|
|-----------------------------------------------------|
|--------5-----4-----0-----------5-----4--4--4--4--4--|
|-----------------------------------------0--0--0--0--|
|--7--7-----7-----7-----7--5--5-----5-----5--5--5--5--|
|-----------------------------------------------------|

Riff2
|--------------------------------------------------| 
|--------------------------------------------------|  
|--------5-----4-----0-----------5-----4-----0-----| 
|--5--5-----5-----5-----5--7--7-----7-----7-----0--| 
|--------------------------------------------------| 
|--------------------------------------------------| 

|-----------------------------------------------------|
|-----------------------------------------------------|
|--------5-----4-----0-----------5-----4--4--4--4--4--|
|-----------------------------------------0--0--0--0--|
|--7--7-----7-----7-----7--5--5-----5-----5--5--5--5--|
|-----------------------------------------0--0--0--0--|

Lyrics:

Intro: G Am Em D X3

(Verse1)
G                  Am
Ek loop in goed vas en vergeet my
Em               D 
kitaar in die saal
G            Am     Em            D
net sodat ek betyds die huis kan haal
          G              Am
want hoe gouer ek daar kom
      Em               D
hoe gouer kan ek met jou praat

En ek weet ek moet dit nie admit nie                }
maar ek kan dit nie help dat ek heeldag             }
aan jou dink nie                                    } Riff1
en in die aand as ek van my Kleuterskool play droom }
dan maak die juffrou jou die                        }
hoofkarakter en vir my die boom...                  }

(Chorus)
G           Em         D       C        G
Ek dink aan jou as ek sit of staan of le
         Em       D             C                G
ek voel nes The Offspring.Want al wat ek wil s is...
      Em     D       C    G
Baby,baby ek wil jou h
      Em     D       C 
Baby,baby ek wil jou h
G
Ek wil jou
Em
Ek wil jou
D           C
Ek wil jou so graag h...

(Verse2)
   G              Am
En al wat ek wil doen is jou soen
Em             D
...en met jou praat
G                   Am               Em                D
Hoe de-hel dink die juffrou moet ek konsentreer op algebra?
         G           Am
want die rede hoekom jy so mooi is,
      Em                    D          
Is die probleem wat my meer pla en
                          
ergste van als daar's nie vergelyking vir jou nie           }Riff2
want jy laat lyk my x maar redelik vaal                     }

(Chorus)
Ek dink aan jou as ek sit of staan of le
ek voel nes 'n os. En al wat ek wil s is...
Baby,baby ek wil jou h
Baby,baby ek wil jou h
Ek wil jou
Ek wil jou
Ek wil jou so graag h...

(Harmonica Solo)

Ek wil jou
Ek wil jou
Ek wil jou so graag h...

Ek dink aan jou as ek sit of staan of le
ek voel nes The Offspring. Want al wat ek wil s is...
Baby,baby ek wil jou h
Baby,baby ek wil jou h
Ek wil jou
Ek wil jou
Ek wil jou
Ek wil jou h...
Ek wil jou
Ek wil jou
Ek wil jou
Ek wil jou h...
Ek wil jou
Ek wil jou
Ek wil jou so graag h... 
Tap to rate this tab
 
# A B C D E F G H I J K L M N O P Q R S T U V W X Y Z