Song name
# A B C D E F G H I J K L M N O P Q R S T U V W X Y Z

Glaskas - Oor En Oor tab

Chords in song:C,F,Am,G

Verse 
|------------0---------------|
|----1----------1--1----1----|
|----------------0---0-------|
|----------2----------2------|
|-3-----3--------------------|
|----------------------------|
     C                                        

|------------1---------------|
|----1----------1---1---1----|
|---------2-------2----------|
|-3-----3-------------3------|
|----------------------------|
|----------------------------|
     F

|-------------0--------------|
|----1----------1--1----2----|
|----------------2-----------|
|---------2-----------2------|
|-0-----0--------------------|
|----------------------------|
    Am
|--------------3-------------|
|----0-----------0---0---0---|
|------------------0---0-----|
|-----------------------0----|
|-----------2----------------|
|-3-------3------------------|
    G

the rhythm isn't 100% Accurate so just listen the song 
Chorus is the same chords 

Verse 

Toe die oggend gekom om te sÍ,
ek moet nou ophou om jou vas te hou,
maar hoe meer ek probeer om van jou af weg te beweeg,
hoe stywer wil ek aan jou vasklou.
Wanneer ons hier in mekaar se arms lÍ,
is ek geneig om van tyd te vergeet.

Chorus 

Want jy is 'n gedig aan my,
en ek is mal daaroor om jou oor en oor te lees.

Verse 

Jy laat alles in my wegraak,
totdat jy alles wat ek sien.
Ek is mal oor jou gesig teen myne,
bly altyd myne asseblief

Chorus

Hou nog 'n bietjie vas aan my lyf,
want jy is 'n liedjie en ek is mal daaroor om jou oor en oor te skryf.

Ek is mal daaroor as jy vra, soen my asseblief,
na alles wat ons deur is en weer bymekaar te wees het ek jou vreeslik lief.

Streel nog 'n bietjie met jou vingers oor my vel,
want ons is 'n storie en ek is mal daaroor as ons dit oor en oor vertel. 

Please rate 
Thanx 
GHosthunter
Tap to rate this tab
 
# A B C D E F G H I J K L M N O P Q R S T U V W X Y Z