Song name
# A B C D E F G H I J K L M N O P Q R S T U V W X Y Z

Glaskas - Kleurvol tab

Intro van Glaskas Kleurvol

E |----------------------------|----------------------------|
B |----------------------------|--------------1-------------|
G |--------------0h-2----------|--------2--------------2----|
D |--------0h-2-----------0----|-----2--------------2-------|
A |--3-----------------3-------|--0-------------------------|
E |----------------------------|----------------------------|


----------------------------|--------------3-------------|
--------1-----------1-------|-----------------3-----3----|
-----------0-----------0----|--------------------0-------|
--3-----------2-------------|--------0-------------------|
----------------------------|----------------------------|
----------------------------|--3-------------------------|


--------------1-------------|--------------3-------------|
-----------------1-----1----|--------3--------3-----3----|
--------2-----------2-------|--------------------0-------|
--3-------------------------|----------------------------|
----------------------------|----------------------------|
----------------------------|--3-------------------------|


--------0-----------0-------|----------------------------|
-----------1-----------1----|--------------1-------------|
----------------------------|-----------------------2----|
----------------------------|--------2-----------2-------|
--3-----------2-------------|--0-------------------------|
----------------------------|----------------------------|


--------------0-------------|--------------1-------------|
--0h-1-----------1----------|--------1--------1-----1----|
--------2-----------2-------|--------------------2-------|
-----------2-----------2----|----------------------------|
----------------------------|----------------------------|
----------------------------|--1-------------------------|


--------------3-------------|--------0-----------0-------|
--------3--------3-----3----|-----------1-----------1----|
--------------------0-------|----------------------------|
----------------------------|----------------------------|
----------------------------|--3-----------2-------------|
--3-------------------------|----------------------------|


----------------------------|--------------0-------------|
--------------1-------------|--0h-1-----------1----------|
-----------------------2----|--------2-----------2-------|
--------2-----------2-------|-----------2-----------2----|
--0-------------------------|----------------------------|
----------------------------|----------------------------|


--------------1-------------|--------------3-------------|--0----||
--------1--------1-----1----|--------3--------3-----3----|--1----||
--------------------2-------|--------------------0-------|--0----||
----------------------------|----------------------------|--2----||
----------------------------|----------------------------|--3----||
--1-------------------------|--3-------------------------|--0----||

Ek ken redelik van Glaskas en Dans Dans Lisa se goed ,sit ma n request in die
comment's of email my dikseunwarchief@gmail.com
Tap to rate this tab
# A B C D E F G H I J K L M N O P Q R S T U V W X Y Z