Song name
# A B C D E F G H I J K L M N O P Q R S T U V W X Y Z

Glass Candy - Candy Castle tab

-------------------------------------------------------------------------------
                             Glass Candy  CANDY CASTLE
-------------------------------------------------------------------------------
Tabbed by: Neil R. Rose
E-mail: neil.damage.done@gmail.com

Tuning: standard

http://echoparkrecords.com/artists/glasscandy/
https://www.facebook.com/GLASSCANDY


Intro
B~ G A~ G~ E F

Bass line
e|----------------------------------------------------------|
B|----------------------------------------------------------|
G|----------------------------------------------------------|
D|----------------------------------------------------------|
A|--2-2-0--2-2-0----------------0-0----0-0------------------|
E|----------------3-3-3--5-5-5------3------3--0-0-0--1-1-1--|

Guitar
e|--7-77-9-7-7-5-7--77-8-7-7-5-3--33-5-3-3-1-0-0-0-1-1-1-|
B|----------------------------------------------------------|
G|----------------------------------------------------------|
D|----------------------------------------------------------|
A|----------------------------------------------------------|
E|----------------------------------------------------------|

Chorus
e|-----------------------------------------------------|
B|-----------------------------------------------------|
G|-----------------------------------------------------|
D|--111111-999--777--555----999--777-555-3--2-2-2-3-3--|
A|-----------------------------------------------------|
E|--9-9-9--777--555--333----777--555-333-1--0-0-0-1-1--|
Tap to rate this tab
# A B C D E F G H I J K L M N O P Q R S T U V W X Y Z