Song name
# A B C D E F G H I J K L M N O P Q R S T U V W X Y Z

Glass Casket - Too Scared To Live tab

Part 1: Tremelo Picked

D----18-14--------------------------13-17----14-10-------------------------9-13-------|
A----------16--------------------15----------------12-------------------11------------|
F-------------15--------------14----------------------11-------------10---------------|
C----------------16--------15----------------------------12-------11------------------|
G-------------------18--12----------------------------------14--9---------------------|
C-------------------------------------------------------------------------------------|

Part 2: Palm Muted Chug(im not completely sure about this pattern)


------------------------------------------|
------------------------------------------|
------------------------------------------|
------------------------------------------|
------------------------------------------|
-1-0-1-2-1-0------------------------------|


Then repeat parts 1 and 2 until


Part 3:.=Chugs T= Tremelo Picked(once again im not completely sure)

----------------------------------------------------------------|
----------------------------------------------------------------|
----------------------------------------------------------------|
----------------------------------------------------------------|
----------------------------------------------------------------|
-1-0-1-2-1-0--2--1-0-1-2-1-0--3--1-0-1-2-1-0--3--1-0-1-2-1-0--4-|
 . . . . . .  t  . . . . . .  t  . . . . . .  t  . . . . . .  t

----------------------------------------------------------------|
----------------------------------------------------------------|
----------------------------------------------------------------|
----------------------------------------------------------------|
-----------5-----------4-----------2-----------1----------------|
-1-0-1-2-1---1-0-1-2-1---1-0-1-2-1---1-0-1-2-1------------------|
 . . . . .   . . . . .   . . . . .   . . . . .

I haven't figured out the rest but im working on it
vote and leave feed back =]

http://www.myspace.com/chrispetriemusic
Tap to rate this tab
 
# A B C D E F G H I J K L M N O P Q R S T U V W X Y Z