Song name
# A B C D E F G H I J K L M N O P Q R S T U V W X Y Z

Glass Eyed Monkeys - Out Ta Get Ya tab

Help us improve GuitareTab! Take a short survey!
intro
e---------------------------------------
b---------------------------------------
g---------------------------------------
D--2-2-2--3*--2-2-2--5*-----------------
A--2-2-2--3*--2-2-2--5*-----------------
E--0-0-0--1*--0-0-0--3*-----------------      x2


verse
e---------------------------------------
b---------------------------------------
g---------------------------------------
D-----4--6^--4-----------2--4^--4-------
A--6------------6^----4------------2^---
E---------------------------------------      x2


chorus
e---------------------------------------
b---------------------------------------
g---------------------------------------
D--2-2-2-xx-5-5-5-xx-7-7-xx-9-----------
A--2-2-2-xx-5-5-5-xx-7-7-xx-9-----------
E--0-0-0-xx-3-3-3-xx-5-5-xx-7-----------


e-------------|-------------------------
b-------------|-------------------------
g-------------|-------------------------
D--9-9-9-9-9-\|-2-2-2-xx-5-5-5-xx-7-7-xx
A--9-9-9-9-9-\|-2-2-2-xx-5-5-5-xx-7-7-xx
E--7-7-7-7-7-\|-0-0-0-xx-3-3-3-xx-5-5-xx

e-------------------|
b-------------------|
g-------------------|
D-9-x----9-9-9-9-9-\|
A-9-x----9-9-9-9-9-\|
E-7-x----7-7-7-7-7-\|                         x4
Related for Out Ta Get Ya tab