Song name
# A B C D E F G H I J K L M N O P Q R S T U V W X Y Z

Glasseater - Alone In A World Without You tab

----------------------------------------------------------------------------
                 'Alone in A World Without You' - Glasseater
----------------------------------------------------------------------------
Tabbed by:N Webb	
Email:nwebb3@kent.edu

Tuning: down half step

This tab is for one accoustic guitar, played alone. Which means i may have added
some things to make it sound better with only one instrument.  If u wish just dont
play these things and it will make the song easier. Listen to the song for strumming
patterns...p.s. this is my first tab! so tell me how to improve. thanks

   :Intro:
|---0---0_______0---1_______1-0-1_______1-0___0-3___3--|
|---0h1-1_______1p0-3_______3-0-1_______1-1___1-0___0--|
|---2---2_______2---2_______2-0-2_______2-0___0-0___0--|
|---2---2_strum_2---0_strum_0-2/3_strum_3-2___2-0___0--|
|---0---0_______0---0_______0-2/3_______3-3___3-2___2--|
|---0---0_______0-------------0-1_______1-------3___3--|

|---0_______0--1_______1-0-1_______1-0___0-3___3--|
|---2_______2h33_______3-0-1_______1-1___1-0___0--|
|---2_______2--2_______2-0-2_______2-0___0-0___0--|
|---2_______2--0_______0-2/3_______3-2___2-0___0--|
|---0_______0--0_______0-2/3_______3-3___3-2___2--|
|---0_______0------------0-1_______1-------3___3--|


   Verse--listen for timing here
|-000------000----111------------111--111----------111------000-------3--|
|-111------111----333------------333--111----------111------111-------0--|
|-222------222----222------------222--222----------222------000-------0--|
|-222------222----000------------000--333----------333------222-------0--|x2
|-000------000----000------------000--333----------333------333-------2--|
|-000------000------------------------111----------111----------------3--|
    1.Since day one...
    2.Alone in a world...
  
  Chorus(Same as intro)
|---0---0_______0---1_______1-0-1_______1-0___0-3___3--|
|---0h1-1_______1p0-3_______3-0-1_______1-1___1-0___0--|
|---2---2_______2---2_______2-0-2_______2-0___0-0___0--|
|---2---2_strum_2---0_strum_0-2/3_strum_3-2___2-0___0--|
|---0---0_______0---0_______0-2/3_______3-3___3-2___2--|
|---0---0_______0-------------0-1_______1-------3___3--|
       Cause...    
                                          
|---0_______0--1_______1-0-1_______1-0___0-3___3--|
|---2_______2h33_______3-0-1_______1-1___1-0___0--|
|---2_______2--2_______2-0-2_______2-0___0-0___0--|
|---2_______2--0_______0-2/3_______3-2___2-0___0--|
|---0_______0--0_______0-2/3_______3-3___3-2___2--|
|---0_______0------------0-1_______1-------3___3--|
          

   Verse 
|-000------000----111------------111--111----------111------000-------3--|
|-111------111----333------------333--111----------111------111-------0--|
|-222------222----222------------222--222----------222------000-------0--|
|-222------222----000------------000--333----------333------222-------0--|x2
|-000------000----000------------000--333----------333------333-------2--|
|-000------000------------------------111----------111----------------3--|
    1.But we will...
    2.Alone in a world...

  ~:Repeat CHORUS:~

---Next part...he plays the arppeggios of these chords-i didnt feel like figuring it out.
   the chords sound fine just by strumming them.
|-1-----------3---------------------------0----------|
|-1-----------1---------------------------2----------|
|-2-----------0---------------------------2----------|
|-3-----------2---------------------------2----------|
|-3-----------3---------------------------0----------|
|-1---------------------------------------0----------|
    Don't live life by the norm' in society
    
|--------------1----------------------h3p1--1-----------|
|--------------3-----------------------3-3--1-----------|
|--------------2-----------------------2-2--2-----------|
|--------------0-----------------------0-1--3-----------|
|-------------------------------------------3-----------|
|-------------------------------------------1-----------|
    Do what you have to do to keep you happy

|-1-------------3---------------------------0--------|
|-1-------------1---------------------------2--------|
|-2-------------0---------------------------2--------|
|-3-------------2---------------------------2--------|
|-3-------------3---------------------------0--------|
|-1-----------------------------------------0--------|
   So what if it doesnt matter to them at all

|----------------1---------------h3p1--1-----------------|
|----------------3----------------3-3--1-----------------|
|----------------2----------------2-2--2-----------------|
|----------------0----------------0-0--3-----------------|(repeat)
|--------------------------------------3-----------------|
|--------------------------------------1-----------------|
   It makes sense to you keep on, dont stall

  2nd time after 'stall'
|---1-1-111-1-1---------|
|---1-1-111-1-3---------|
|---2-2-222-2-3---------|
|---3-3-333-3-3---------|x2
|---3-3-333-3-1---------|
|---1-1-111-1-1---------|
 
~:repeat intro:~

~:repeat chorus:~

~:repeat chorus:~

  end with:
|-0-0-0----|
|-2-2-2----|
|-2-2-2----|
|-2-2-2----|
|-0-0-0----|
|-0-0-0----|


| /  slide up
| \  slide down
| h  hammer-on
| p  pull-off
| ~  vibrato
| +  harmonic
| x  Mute note
============================================================================
Tap to rate this tab
 
# A B C D E F G H I J K L M N O P Q R S T U V W X Y Z