Song name
# A B C D E F G H I J K L M N O P Q R S T U V W X Y Z

Glasshouse - One Night In Your Skin tab

Tabbed by:ellie (lilmissallstar)
Email:prettyinblue_@hotmail.com

intro:
e|-----------------|
B|-----------------|
G|-----------------|
D|-----------------|
A|-7-5-7-5-8-5-8-5-|x2
E|-----------------|

e|--------------------------------------------|
B|--------------------------------------------|
G|--------------------------------------------|
D|-88888888-7777/9999-101010-999-7777-9999----|
A|-66666666-777777777-7 7 7 -777-7777-7777----|
E|--------------------------------------------| x 2

verse 1:
e|---------------------------------------------------|
B|---------------------------------------------------|
G|---------------------------------------------------|
D|---6---------6---------6---------6---------6-------|
A|-----5---------5---------5---------5---------5-----|
E|-(0)-------(0)-------(0)-------(5)-------(0)-------| x2


e|-------------|
B|-------------|
G|-------------|
D|---6-66-6-6--|
A|--5-5--5-5---|
E|-0-----------|

chorus part |:
e|-------------------------------------------------|
B|-------------------------------------------------|
G|-------------------------------------------------|
D|10101010-7777-8888-9999-10101010-8888-9999-9999--|
A|7 7 7 7 -5555-6666-7777-8 8 8 8 -6666-6666-7777--|
E|-------------------------------------------------|x2

chorus part ||:
e|-------------------------------------------------|
B|-------------------------------------------------|
G|-------------------------------------------------|
D|-9999999999999999-9999-10101010-9999-------------|
A|-7777777777777777-8888-8 8 8-8--8888-------------|
E|-------------------------------------------------| repeat as needed

verse 2 (=same as verse 1)

chorus part | and ||


e|-----------|
B|-----------|
G|-----------|
D|-4-10-7-9--|
A|-6-8 -5-7--|
E|-----------| x4

e|------------------------------------|
B|------------------------------------|
G|------------------------------------|
D|------------------------------------|
A|--10101010-9999-1010101010101010----|
E|--8 8 8 8 -7777-8 8 8 8 8 8 8 8-----| x4

chorus part | - x2

e|------------|
B|------------|
G|------------|
D|------------|
A|---11--7--9-|
E|-8----------| x4


note: the spaces dont mean anything.  please give me any tips or let me know if theres 
mistakes. this is my 1st tab of a song I taught myself so i'd appreciate any help guys! thanx
Tap to rate this tab
 
# A B C D E F G H I J K L M N O P Q R S T U V W X Y Z