Guitaretab - guitar tabs
Song name
# A B C D E F G H I J K L M N O P Q R S T U V W X Y Z

Glassjaw - Pretty Lush tab

Author/Artist: Glassjaw
Title: Pretty Lush
Album: Everything You Ever Wanted To Know About Silence
Transcribed by: Ben Hellings
Email: legionofben@ntlworld.com

Tuning: DADGBE

-----------|----------------------------------------------|------|------------
-----------|----------------------------------------------|------|------------
-----------|----------------------------------------------|------|------------
-0-2-3-5-6-|-8-8-8---8-8-8---8-8-8---8-8-8---8-8-8---8-8--|------|------------
-0-2-3-5-6-|-7-7-7---7-7-7---7-7-7---7-7-7---7-7-7---7-7--|------|------------
-0-2-3-5-6-|-6-6-6---6-6-6---6-6-6---6-6-6---6-6-6---6-6--|------|------------
 Riff 1      Riff 2                                        Riff1              

-----------------------------------------------|------------------------------
-----------------------------------------------|------------------------------
-----------------------------------------------|------------------------------
-0-0-0---0-0-0---0-0-0---0-0-0---0-0-0---0-0-0-|-0-2-3-5-6----0-2-3---5-6-----
-0-0-0---0-0-0---0-0-0---0-0-0---0-0-0---0-0-0-|-0-2-3-5-6----0-2-3---5-6-----
-0-0-0---0-0-0---0-0-0---0-0-0---0-0-0---0-0-0-|-0-2-3-5-6----0-2-3---5-6-----
 Riff 3                                          Only pld by guitar 2(   )    

-------------------------|----------------------------------------------------
--8------8-8---------8---|----------------------------------------------------
--7------7---7---------7-|-8-8-8-8-8-8-8-8-10-10-10-10-10-10-10-10-12-12-12---
--5------5-----5---------|----------------------------------------------------
--5------5---------5-----|-6-6-6-6-6-6-6-6-8--8--8--8--8--8--8--8--10-10-10---
--5------5---------------|----------------------------------------------------
 Guitar 1                                                                     

----------------------------------------|----------|-------|--------|-------|-
----------------------------------------|----------|-------|--------|-------|-
-12-12-12-12-12-12-12-12-12-12-12-12-12-|----------|-------|--------|-------|-
----------------------------------------|-5-------|-1-----|-5-----|-1-----|-
-10-10-10-10-10-10-10-10-10-10-10-10-10-|-5-------|-1-----|-5-----|-1-----|-
----------------------------------------|-5-------|-1-x32-|-5-----|-1-x29-|-
                                          Guitar 2 over guitar 1              
[ Tab from: http://www.guitaretab.com/g/glassjaw/32926.html ]
-----------------------------------------------|----------------------------|-
-8---------------------------------------------|----------------------------|-
-7---------------------------------------------|----------------------------|-
-5---------------------------------------------|-5-----1-----5-----1-----1-3|-
-5---------------------------------------------|-5-----1-----5-----1-----1-3|-
-5---------------------------------------------|-5-x16-1-x16-5-x16-1-x12-1-3|-
 Guitar 1 basically messes about on this chord   Guitar 2 over Guitar 1       

-5-----5-----8-6-5-6-5---6-5---------|-------------------------------|--------
---8-----8-------------8-----8---8---|-------------------------------|--------
-----7-----7-------------------7---7-|-------------------------------|--------
-------------------------------------|--5-----1-----5-----1----------|--------
-------------------------------------|--5-----1-----5-----1----------|--------
-------------------------------------|--5-x16-1-x16-5-x16-1-x8-------|--------
 Guitar 1      or therabouts           Guitar 2                               

----------------------------|-----------------------------------|-------------
----------------------------|-----------------------------------|-------------
----------------------------|-----------------------------------|-------------
----------------------------|-0-2-3-5-6---0-2-3-5-6--0-2-3--0-2-|-------------
----------------------------|-0-2-3-5-6---0-2-3-5-6--0-2-3--0-2-|-------------
----------------------------|-0-2-3-5-6---0-2-3-5-6--0-2-3--0-2-|-------------
  lots of repeats and stuff   Both Guitars                                    

--------------------------------|--------------------------|----------------|-
--------------------------------|--------------------------|----------------|-
--------------------------------|--------------------------|----------------|-
-0-2-3-5-6---0-2-3-6-5----------|-0-2-3-5-6---0-2-3-5-6----|----------------|-
-0-2-3-5-6---0-2-3-6-5------x3--|-0-2-3-5-6---0-2-3-5-6----|----------------|-
-0-2-3-5-6---0-2-3-6-5----------|-0-2-3-5-6---0-2-3-5-6----|----------------|-
 A  (2Only)       (2Only)            (2Only)  (BothGuitars) Both Guitars Ax4  

-------|------------------------|-------|-------------------------------------
-------|------------------------|-------|-------------------------------------
-------|------------------------|-------|-------------------------------------
-0-2-3-|------------------------|-0-2-3-|-------------------------------------
-0-2-3-|------------------------|-0-2-3-|-------------------------------------
-0-2-3-|------------------------|-0-2-3-|-------------------------------------
         Repeats stuff again
Related for Pretty Lush tab
Pretty Lush chords by Glassjaw