Guitaretab - guitar tabs
Song name
# A B C D E F G H I J K L M N O P Q R S T U V W X Y Z

Glassjaw - Tip Your Bartender tab

Artist: Glassjaw
Title: Tip Your Bartender
Tuning: Dropped D (DADGBe) Low to high
Tabber: a_guy_called_richard@hotmail.com

Tuning: Drop D

There are alot of variations in this song. Mostly done by the lead guitar.
Its quite easy to hear them but i'l tab them for you anyway.



Intro: Mute the strings after each set of open strings
|---------------------------------|
|---------------------------------|
|---------------------------------| x2
|-0--0--0--0--0-0-0-0-0--0--0--0--|
|-0--0--0--0--0-0-0-0-0--0--0--0--|
|-0--0--0--0--0-0-0-0-0--0--0--0--|



Verse: 

Rhythm: Mute the strings after each set of open strings,
apart from the last set of 1's, let these ring for a little.
|------------------------------------------|
|------------------------------------------|
|------------------------------------------| x3
|-0--0--0--0--0-1-0-1-0--0--0--1---x-x-x-x-|
|-0--0--0--0--0-1-0-1-0--0--0--1---x-x-x-x-|
|-0--0--0--0--0-1-0-1-0--0--0--1---x-x-x-x-|

|--------------------------|
|--------------------------|
|--------------------------| Play this on the last time of the Verse
|-0--0--0--0--0-1-0-1-0--0-|
|-0--0--0--0--0-1-0-1-0--0-|
|-0--0--0--0--0-1-0-1-0--0-|


Lead: Not so much lead, just another guitar
|------------------------------------------|
|------------------------------------------|
|------------------------------------------| x2
|-0--0--0--0--0-1-0-1-0--0--0--1-----------|
|-0--0--0--0--0-1-0-1-0--0--0--1-----------|
|-0--0--0--0--0-1-0-1-0--0--0--1-----------|
Throw a bit of wah on this one ^

|--------------------------------------|
|--------------------------------------|
|--------------------------------------|
|-0--------0---------0---------0-------|
|-0--------0---------0---------0-------|
|-0--------0---------0---------0-------|
Put alot of wah on this part and just keep doing it




Chorus: This is where it gets confusing

Rhythm:
|-------------------------|
|-------------------------|
|-------------------------|
|-6-6-6-6-6-6-6-6-6-6-6-6-|
|-6-6-6-6-6-6-6-6-6-6-6-6-|
|-6-6-6-6-6-6-6-6-6-6-6-6-|

|-------------------------|
|-------------------------|
|-------------------------|
|-4-4-4-4-4-4-4-4-4-4-4-4-|
|-4-4-4-4-4-4-4-4-4-4-4-4-|
|-4-4-4-4-4-4-4-4-4-4-4-4-|

|-------------------------|
|-------------------------|
|-------------------------| x2
|-2-2-2-2-2-2-2-2-2-2-2-2-|
|-2-2-2-2-2-2-2-2-2-2-2-2-|
|-2-2-2-2-2-2-2-2-2-2-2-2-|


Lead:
|-------------------------|
|-------------------------|
|-------------------------|
|-6h7-6h7-6h7-6h7-6h7-6h7-|
|-------------------------|
|-------------------------|

|-------------------------|
|-------------------------|
|-------------------------|
|-4h6-4h6-4h6-4h6-4h6-4h6-|
|-------------------------|
|-------------------------|

|-------------------------|
|-------------------------|
|-------------------------| x2
|-2h4-2h4-2h4-2h4-2h4-2h4-|
|-------------------------|
|-------------------------|


On the second time through the Chorus play this at the end:
|-------------------------|
|-------------------------|
|-------------------------|
|-2h4-4b------------------|
|-------------------------|
|-------------------------|
just keep bending up til the next part


On the third time through the Chorus play this:
|-------------------------|
|-------------------------|
|-------------------------| x2
|-6h7-6h7-6h7-6h7-6~~~~~~-|
|-------------------------|
|-------------------------|

|-------------------------|
|-------------------------|
|-------------------------| x2
|-2h4-2h4-2h4-2h4-2h4-2h4-|
|-------------------------|
|-------------------------|



And finally, on the last time through, play this:
|-------------------------|
|-------------------------|
|-------------------------| x2
|-6h7-6h7-6h7-6h7-6~~~~~~-|
|-------------------------|
|-------------------------|

|-------------------------|
|-------------------------|
|-------------------------|
|-2h4-2h4-2h4-2h4-2h4-2h4-|
|-------------------------|
|-------------------------|

|-------------------------|
|-------------------------|
|-------------------------|
|-2h4-4b------------------|
|-------------------------|
|-------------------------|




Then play a Verse, except at the pasue before the next
Chorus, play this:
|-------------------------|
|-5-----------------------|
|-8b----------------------|
|-------------------------|
|-------------------------|
|-------------------------|
Keep bending the eight slightly untill the 
next Chorus




Then play a Chorus




Bridge: Theres a bit of feedback playing in the background,
but i think both guitars play this part.
|----------------------------------------------------------|
|----------------------------------------------------------|
|-------13-13-13-------13-13-13-------13-13-13-------------|
|-0-0-0-x--x--x--0-0-0-x--x--x--0-0-0-x--x--x--0-0-0-0-0-0-|
|-0-0-0-11-11-11-0-0-0-11-11-11-0-0-0-11-11-11-0-0-0-0-0-0-|
|-0-0-0----------0-0-0----------0-0-0----------0-0-0-0-0-0-|
PM. . .          . . .          . . .          . . .   . .

|----------------------------------------------------------|
|----------------------------------------------------------|
|-------13-13-13-------13-13-13-------13-13-13-------------| x3
|-0-0-0-x--x--x--0-0-0-x--x--x--0-0-0-x--x--x--0-0-0-0-0-0-|
|-0-0-0-11-11-11-0-0-0-11-11-11-0-0-0-11-11-11-0-0-0-0-0-0-|
|-0-0-0----------0-0-0----------0-0-0----------0-0-0-0-0-0-|
PM  . .          . . .          . . .          . . .   . .




Interlude:

Rhythm:
|---------------------------------------------|
|---------------------------------------------|
|---------------------------------------------|
|-0---0------0---0------0---0------1---1------|
|-0---0------0---0------0---0------1---1------|
|-0---0------0---0------0---0------1---1------|

[ Tab from: http://www.guitaretab.com/g/glassjaw/38977.html ]
Lead: I've seen a few live videos and stuff and this is 
definatly how its played.
Just hit eacfh one about 6 times. Its played extremely fast.
|-------------------------|
|-16-16-16-19-16-16-16-21-|
|-------------------------|
|-13-13-13-16-13-13-13-18-|
|-------------------------|
|-------------------------|

Play each one 2 times.
|---------------------------------|
|-16-16-16-16-13-11-13-11-9--7----|
|---------------------------------|
|-13-13-13-13-11-9--11-9--7--5----|
|---------------------------------|
|---------------------------------|



End of Interlude:

Rhythm:
|-----------------------------------|
|-----------------------------------|
|-----------------------------------|
|-0-0-0------0-0-0------0-0-0-------|
|-0-0-0------0-0-0------0-0-0-------|
|-0-0-0------0-0-0------0-0-0-------|
PM                      . . . 



Lead:
|-----------------------------------|
|-/19----/21------------------------|
|-----------------------------------|
|-/16----/18------------------------|
|-----------------------------------|
|-----------------------------------|




Wait for the rest of the bar and then play the
higher Chorus:

Rhythm:
|-------------------------|
|-------------------------|
|-------------------------|
|-7-7-7-7-7-7-7-7-7-7-7-7-|
|-7-7-7-7-7-7-7-7-7-7-7-7-|
|-7-7-7-7-7-7-7-7-7-7-7-7-|

|-------------------------|
|-------------------------|
|-------------------------|
|-5-5-5-5-5-5-5-5-5-5-5-5-|
|-5-5-5-5-5-5-5-5-5-5-5-5-|
|-5-5-5-5-5-5-5-5-5-5-5-5-|

|-------------------------|
|-------------------------|
|-------------------------| x2
|-3-3-3-3-3-3-3-3-3-3-3-3-|
|-3-3-3-3-3-3-3-3-3-3-3-3-|
|-3-3-3-3-3-3-3-3-3-3-3-3-|



Lead:
|-------------------------|
|-------------------------|
|-------------------------|
|-7h8-7h8-7h8-7h8-7h8-7h8-|
|-------------------------|
|-------------------------|

|-------------------------|
|-------------------------|
|-------------------------|
|-5h7-5h7-5h7-5h7-5h7-5h7-|
|-------------------------|
|-------------------------|

|-------------------------|
|-------------------------|
|-------------------------| x2
|-3h5-3h5-3h5-3h5-3h5-3h5-|
|-------------------------|
|-------------------------|


On the second time through the Chorus play this at the end:
|-------------------------|
|-------------------------|
|-------------------------|
|-3h5-5b------------------|
|-------------------------|
|-------------------------|
just keep bending up til the next part


On the third time through the Chorus play this:
|-------------------------|
|-------------------------|
|-------------------------| x2
|-7h8-7h8-7h8-7h8-7~~~~~~-|
|-------------------------|
|-------------------------|

|-------------------------|
|-------------------------|
|-------------------------| x2
|-3h5-3h5-3h5-3h5-3h5-3h5-|
|-------------------------|
|-------------------------|



And finally, on the last time through, play this:
|-------------------------|
|-------------------------|
|-------------------------| x2
|-7h8-7h8-7h8-7h8-7~~~~~~-|
|-------------------------|
|-------------------------|

|-------------------------|
|-------------------------|
|-------------------------|
|-3h5-3h5-3h5-3h5-3h5-3h5-|
|-------------------------|
|-------------------------|

|-------------------------|
|-------------------------|
|-------------------------|
|-3h5-5b------------------|
|-------------------------|
|-------------------------|



End:

Rhythm:
|---------------------------------------------|
|---------------------------------------------|
|---------------------------------------------|
|-0-0-0------0-0-0------0-0-0-------0-0-0-----|
|-0-0-0------0-0-0------0-0-0-------0-0-0-----|
|-0-0-0------0-0-0------0-0-0-------0-0-0-----|


Lead: I think this is whats played after the above
is played once:
|---------------------------------------------|
|-16--16-----16-16------16-16-------16-16-----|
|---------------------------------------------|
|-13--13-----13-13------13-13-------13-13-----|
|---------------------------------------------|
|---------------------------------------------|



End part 2:

Rhythm:
|-------------------------------------------------------------|
|-------------------------------------------------------------|
|-------13-13-13-------13-13-13-------13-13-13-------13-13-13-|
|-0-0-0-x--x--x--0-0-0-x--x--x--0-0-0-x--x--x--0-0-0-x--x--x--|
|-0-0-0-11-11-11-0-0-0-11-11-11-0-0-0-11-11-11-0-0-0-11-11-11-|
|-0-0-0----------0-0-0----------0-0-0----------0-0-0----------|

|-------------------------------------------------------------|
|-------------------------------------------------------------|
|-13-13-13-13-13-13-13-13-13-13-13-13-13-13-13-13-13-13-13-13-|
|-------------------------------------------------------------|
|-11-11-11-11-11-11-11-11-11-11-11-11-11-11-11-11-11-11-11-11-|
|-------------------------------------------------------------|


Lead:
|-------------------------------------------------------------|
|-16--16---------16-16----------16-16----------16-16----------|
|-------------------------------------------------------------|
|-13--13---------13-13----------13-13----------13-13----------|
|-------------------------------------------------------------|
|-------------------------------------------------------------|

|-------------------------------------------------------------|
|-16-16-16-16-16-16-16-16-16-16-16-16-16-16-16-16-16-16-16-16-|
|-------------------------------------------------------------|
|-13-13-13-13-13-13-13-13-13-13-13-13-13-13-13-13-13-13-13-13-|
|-------------------------------------------------------------|
|-------------------------------------------------------------|
Something like that^



Very end: Yea i know...
Both guitars.
|----------------------------------------------------|
|----------------------------------------------------|
|----------------------------------------------------|
|-0-0-0------0-0-0------0-0-0------------------------|
|-0-0-0------0-0-0------0-0-0------------------------|
|-0-0-0------0-0-0------0-0-0------------------------|
PM                      . . 

Let that last open bit ring for ages and thats it.


Yet another awesome tab by The Legend
Related for Tip Your Bartender tab
Advertisement will be closed in 10 seconds