Song name
# A B C D E F G H I J K L M N O P Q R S T U V W X Y Z

Glassjaw - Trailer Park Jesus tab

Help us improve GuitareTab! Take a short survey!
Trailer Park Jesus
Tabbed by: WorshipTribute13@aol.com

verse-guitar1
-9-------|
--10-----|
----9----|
-----0---|
------0--|
-------0-|
   4x

verse-guitar2
-12-12-12-12-12-12-12-12-10-10-10-10-10-10-10-10-9-9-9-9-9-9-9-9-9-9-9-9-|
-------------------------------------------------------------------------|
-------------------------------------------------------------------------|
-------------------------------------------------------------------------|
-------------------------------------------------------------------------|
-------------------------------------------------------------------------|

------------------------------------------------------------------------10h12-|
-10-10-10-12-12-12-12-12-12-12-12-12-12-12-12-----------------12slide14-------|
----------------------------------------------9-9-9-9-9-9-9-9-----------------|
------------------------------------------------------------------------------|
------------------------------------------------------------------------------|
------------------------------------------------------------------------------|

-12-12-12-12-12-12-12-12-10-10-10-10-10-10-10-10-9-9-9-9-9-9-9-9-9-9-9-9-|
-------------------------------------------------------------------------|
-------------------------------------------------------------------------|
-------------------------------------------------------------------------|
-------------------------------------------------------------------------|
-------------------------------------------------------------------------|

------------------------------------------------------------------------10h12-|
-10-10-10-12-12-12-12-12-12-12-12-12-12-12-12-----------------12slide14-------|
----------------------------------------------9-9-9-9-9-9-9-9-----------------|
------------------------------------------------------------------------------|
------------------------------------------------------------------------------|
------------------------------------------------------------------------------|

_____________________________________________________

chorus-guitar1
---------------------------------------------------------------------------------------------|
---------------------------------------------------------------------------------------------|
-------------------------------------4slide6---6-6-7slide9-9-9-9slide7slide6-6-6-6-6-6-6-6---|
-4-4-4-4-4-4-4-4slide7-7-7-7-7-7-7-7-x-----x-0-x-x-x-----x-x-x-x-----x-----x-x-x-x-x-x-x-x-4-|
-4-4-4-4-4-4-4-4slide7-7-7-7-7-7-7-7-2slide4-0-4-4-5slide7-7-7-7slide5slide4-4-4-4-4-4-4-4-4-|
-4-4-4-4-4-4-4-4slide7-7-7-7-7-7-7-7---------0---------------------------------------------4-|

chorus-guitar2
-------------------------------------------------------------------------|
-12h14-14-12h14-14-12h14-14-12h14-14-12h14-14-12h14-14-12h14-14-12h14-14-|
-------------------------------------------------------------------------|
-------------------------------------------------------------------------|
-------------------------------------------------------------------------|
-------------------------------------------------------------------------|

-16h17-17-16h17-17-16h17-17-16h17-17-16h17-17-16h17-17-16h17-17-16h17-17-|
-------------------------------------------------------------------------|
-------------------------------------------------------------------------|
-------------------------------------------------------------------------|
-------------------------------------------------------------------------|
-------------------------------------------------------------------------|

-14h17-17-14h17-17-14h17-17-14h17-17-14h17-17-14h17-17-14h17-17-14h17-17-|
-------------------------------------------------------------------------|
-------------------------------------------------------------------------|
-------------------------------------------------------------------------|
-------------------------------------------------------------------------|
-------------------------------------------------------------------------|

-17h19-19-17h19-19-17h19-19-17h19-19-17h19-19-17h19-19-17h19-19-17h19-19-|
-------------------------------------------------------------------------|
-------------------------------------------------------------------------|
-------------------------------------------------------------------------|
-------------------------------------------------------------------------|
-------------------------------------------------------------------------|

_____________________________________________________

verse-guitar1
-9-------|
--10-----|
----9----|
-----0---|
------0--|
-------0-|
   2x

verse-guitar2
-12-12-12-12-12-12-12-12-10-10-10-10-10-10-10-10-9-9-9-9-9-9-9-9-9-9-9-9-|
-------------------------------------------------------------------------|
-------------------------------------------------------------------------|
-------------------------------------------------------------------------|
-------------------------------------------------------------------------|
-------------------------------------------------------------------------|

------------------------------------------------------------------------10h12-|
-10-10-10-12-12-12-12-12-12-12-12-12-12-12-12-----------------12slide14-------|
----------------------------------------------9-9-9-9-9-9-9-9-----------------|
------------------------------------------------------------------------------|
------------------------------------------------------------------------------|
------------------------------------------------------------------------------|

-12-12-12-12-12-12-12-12-10-10-10-10-10-10-10-10-9-9-9-9-9-9-9-9-9-9-9-9-|
-------------------------------------------------------------------------|
-------------------------------------------------------------------------|
-------------------------------------------------------------------------|
-------------------------------------------------------------------------|
-------------------------------------------------------------------------|

------------------------------------------------------------------------10h12-|
-10-10-10-12-12-12-12-12-12-12-12-12-12-12-12-----------------12slide14-------|
----------------------------------------------9-9-9-9-9-9-9-9-----------------|
------------------------------------------------------------------------------|
------------------------------------------------------------------------------|
------------------------------------------------------------------------------|

_____________________________________________________

chorus-guitar1
-------------------------------------------------------------------------------------------|
-------------------------------------------------------------------------------------------|
-------------------------------------4slide6---6-6-7slide9-9-9-9slide7slide6-6-6-6-6-6-6-6-|
-4-4-4-4-4-4-4-4slide7-7-7-7-7-7-7-7-x-----x-0-x-x-x-----x-x-x-x-----x-----x-x-x-x-x-x-x-x-|
-4-4-4-4-4-4-4-4slide7-7-7-7-7-7-7-7-2slide4-0-4-4-5slide7-7-7-7slide5slide4-4-4-4-4-4-4-4-|
-4-4-4-4-4-4-4-4slide7-7-7-7-7-7-7-7---------0---------------------------------------------|

chorus-guitar2
-------------------------------------------------------------------------|
-12h14-14-12h14-14-12h14-14-12h14-14-12h14-14-12h14-14-12h14-14-12h14-14-|
-------------------------------------------------------------------------|
-------------------------------------------------------------------------|
-------------------------------------------------------------------------|
-------------------------------------------------------------------------|

-16h17-17-16h17-17-16h17-17-16h17-17-16h17-17-16h17-17-16h17-17-16h17-17-|
-------------------------------------------------------------------------|
-------------------------------------------------------------------------|
-------------------------------------------------------------------------|
-------------------------------------------------------------------------|
-------------------------------------------------------------------------|

-14h17-17-14h17-17-14h17-17-14h17-17-14h17-17-14h17-17-14h17-17-14h17-17-|
-------------------------------------------------------------------------|
-------------------------------------------------------------------------|
-------------------------------------------------------------------------|
-------------------------------------------------------------------------|
-------------------------------------------------------------------------|

-17h19-19-17h19-19-17h19-19-17h19-19-17h19-19-17h19-19-17h19-19-17h19-19-|
-------------------------------------------------------------------------|
-------------------------------------------------------------------------|
-------------------------------------------------------------------------|
-------------------------------------------------------------------------|
-------------------------------------------------------------------------|

_____________________________________________________

chorus-guitar1
-------------------------------------------------------------------------------------------|
-------------------------------------------------------------------------------------------|
-------------------------------------4slide6---6-6-7slide9-9-9-9slide7slide6-6-6-6-6-6-6-6-|
-4-4-4-4-4-4-4-4slide7-7-7-7-7-7-7-7-x-----x-0-x-x-x-----x-x-x-x-----x-----x-x-x-x-x-x-x-x-|
-4-4-4-4-4-4-4-4slide7-7-7-7-7-7-7-7-2slide4-0-4-4-5slide7-7-7-7slide5slide4-4-4-4-4-4-4-4-|
-4-4-4-4-4-4-4-4slide7-7-7-7-7-7-7-7---------0---------------------------------------------|

chorus-guitar2
-------------------------------------------------------------------------|
-12h14-14-12h14-14-12h14-14-12h14-14-12h14-14-12h14-14-12h14-14-12h14-14-|
-------------------------------------------------------------------------|
-------------------------------------------------------------------------|
-------------------------------------------------------------------------|
-------------------------------------------------------------------------|

-16h17-17-16h17-17-16h17-17-16h17-17-16h17-17-16h17-17-16h17-17-16h17-17-|
-------------------------------------------------------------------------|
-------------------------------------------------------------------------|
-------------------------------------------------------------------------|
-------------------------------------------------------------------------|
-------------------------------------------------------------------------|

-14h17-17-14h17-17-14h17-17-14h17-17-14h17-17-14h17-17-14h17-17-14h17-17-|
-------------------------------------------------------------------------|
-------------------------------------------------------------------------|
-------------------------------------------------------------------------|
-------------------------------------------------------------------------|
-------------------------------------------------------------------------|

-17h19-19-17h19-19-17h19-19-17h19-19-17h19-19-17h19-19-17h19-19-17h19-19-|
-------------------------------------------------------------------------|
-------------------------------------------------------------------------|
-------------------------------------------------------------------------|
-------------------------------------------------------------------------|
-------------------------------------------------------------------------|

_____________________________________________________

chorus-guitar1
---------------------------------------------------------------------------|
---------------------------------------------------------------------------|
---------------------------------------------------------------------------|
-4-4-4-4-4-4-4-4slide7-7-7-7-7slide6-6-6-6-2-2-2-2-2-2-2-2-2-2-2-2-2-2-2-2-|
-4-4-4-4-4-4-4-4slide7-7-7-7-7slide6-6-6-6-2-2-2-2-2-2-2-2-2-2-2-2-2-2-2-2-|
-4-4-4-4-4-4-4-4slide7-7-7-7-7slide6-6-6-6-2-2-2-2-2-2-2-2-2-2-2-2-2-2-2-2-|

chorus-guitar2
-21-21-21-21-21-21-21-21-19-19-19-19-17-17-17-17-16-16-16-16-16-16-16-16-12-12-12-12-14-14-14-14-|
-------------------------------------------------------------------------------------------------|
-------------------------------------------------------------------------------------------------|
-------------------------------------------------------------------------------------------------|
-------------------------------------------------------------------------------------------------|
-------------------------------------------------------------------------------------------------|

-12-12-12-12-12-12-12-12-12-12-12-12-14-14-14-14-12-12-12-12-12-12-12-12-12-12-12-12-|
-------------------------------------------------------------------------------------|
-------------------------------------------------------------------------------------|
-------------------------------------------------------------------------------------|
-------------------------------------------------------------------------------------|
-------------------------------------------------------------------------------------|

_____________________________________________________

chorus-guitar1
---------------------------------------------------------------------------|
---------------------------------------------------------------------------|
---------------------------------------------------------------------------|
-4-4-4-4-4-4-4-4slide7-7-7-7-7slide6-6-6-6-2-2-2-2-2-2-2-2-2-2-2-2-2-2-2-2-|
-4-4-4-4-4-4-4-4slide7-7-7-7-7slide6-6-6-6-2-2-2-2-2-2-2-2-2-2-2-2-2-2-2-2-|
-4-4-4-4-4-4-4-4slide7-7-7-7-7slide6-6-6-6-2-2-2-2-2-2-2-2-2-2-2-2-2-2-2-2-|

chorus-guitar2
-21-21-21-21-21-21-21-21-19-19-19-19-17-17-17-17-16-16-16-16-16-16-16-16-12-12-12-12-14-14-14-14-|
-------------------------------------------------------------------------------------------------|
-------------------------------------------------------------------------------------------------|
-------------------------------------------------------------------------------------------------|
-------------------------------------------------------------------------------------------------|
-------------------------------------------------------------------------------------------------|

-12-12-12-12-12-12-12-12-12-12-12-12-14-14-14-14-12-12-12-12-12-12-12-12-12-12-12-12-|
-------------------------------------------------------------------------------------|
-------------------------------------------------------------------------------------|
-------------------------------------------------------------------------------------|
-------------------------------------------------------------------------------------|
-------------------------------------------------------------------------------------|

_____________________________________________________

bridge-guitar1
--------|
--------|
-9-11-9-|
--------|
--------|
--------|
18x

bridge-guitar2
-12-10-9---------|
---------10-12---|
---------------9-|
-----------------|
-----------------|
-----------------|
2x

_____________________________________________________

chorus-guitar1
-------------------------------------------------------------------------------------------|
-------------------------------------------------------------------------------------------|
-------------------------------------4slide6---6-6-7slide9-9-9-9slide7slide6-6-6-6-6-6-6-6-|
-4-4-4-4-4-4-4-4slide7-7-7-7-7-7-7-7-x-----x-0-x-x-x-----x-x-x-x-----x-----x-x-x-x-x-x-x-x-|
-4-4-4-4-4-4-4-4slide7-7-7-7-7-7-7-7-2slide4-0-4-4-5slide7-7-7-7slide5slide4-4-4-4-4-4-4-4-|
-4-4-4-4-4-4-4-4slide7-7-7-7-7-7-7-7---------0---------------------------------------------|

chorus-guitar2
-------------------------------------------------------------------------|
-12h14-14-12h14-14-12h14-14-12h14-14-12h14-14-12h14-14-12h14-14-12h14-14-|
-------------------------------------------------------------------------|
-------------------------------------------------------------------------|
-------------------------------------------------------------------------|
-------------------------------------------------------------------------|

-16h17-17-16h17-17-16h17-17-16h17-17-16h17-17-16h17-17-16h17-17-16h17-17-|
-------------------------------------------------------------------------|
-------------------------------------------------------------------------|
-------------------------------------------------------------------------|
-------------------------------------------------------------------------|
-------------------------------------------------------------------------|

-14h17-17-14h17-17-14h17-17-14h17-17-14h17-17-14h17-17-14h17-17-14h17-17-|
-------------------------------------------------------------------------|
-------------------------------------------------------------------------|
-------------------------------------------------------------------------|
-------------------------------------------------------------------------|
-------------------------------------------------------------------------|

-17h19-19-17h19-19-17h19-19-17h19-19-17h19-19-17h19-19-17h19-19-17h19-19-|
-------------------------------------------------------------------------|
-------------------------------------------------------------------------|
-------------------------------------------------------------------------|
-------------------------------------------------------------------------|
-------------------------------------------------------------------------|

_____________________________________________________

chorus-guitar1
-------------------------------------------------------------------------------------------|
-------------------------------------------------------------------------------------------|
-------------------------------------4slide6---6-6-7slide9-9-9-9slide7slide6-6-6-6-6-6-6-6-|
-4-4-4-4-4-4-4-4slide7-7-7-7-7-7-7-7-x-----x-0-x-x-x-----x-x-x-x-----x-----x-x-x-x-x-x-x-x-|
-4-4-4-4-4-4-4-4slide7-7-7-7-7-7-7-7-2slide4-0-4-4-5slide7-7-7-7slide5slide4-4-4-4-4-4-4-4-|
-4-4-4-4-4-4-4-4slide7-7-7-7-7-7-7-7---------0---------------------------------------------|

chorus-guitar2
-------------------------------------------------------------------------|
-12h14-14-12h14-14-12h14-14-12h14-14-12h14-14-12h14-14-12h14-14-12h14-14-|
-------------------------------------------------------------------------|
-------------------------------------------------------------------------|
-------------------------------------------------------------------------|
-------------------------------------------------------------------------|

-16h17-17-16h17-17-16h17-17-16h17-17-16h17-17-16h17-17-16h17-17-16h17-17-|
-------------------------------------------------------------------------|
-------------------------------------------------------------------------|
-------------------------------------------------------------------------|
-------------------------------------------------------------------------|
-------------------------------------------------------------------------|

-14h17-17-14h17-17-14h17-17-14h17-17-14h17-17-14h17-17-14h17-17-14h17-17-|
-------------------------------------------------------------------------|
-------------------------------------------------------------------------|
-------------------------------------------------------------------------|
-------------------------------------------------------------------------|
-------------------------------------------------------------------------|

-17h19-19-17h19-19-17h19-19-17h19-19-17h19-19-17h19-19-17h19-19-17h19-19-|
-------------------------------------------------------------------------|
-------------------------------------------------------------------------|
-------------------------------------------------------------------------|
-------------------------------------------------------------------------|
-------------------------------------------------------------------------|

_____________________________________________________

chorus-guitar1
---------------------------------------------------------------------------|
---------------------------------------------------------------------------|
---------------------------------------------------------------------------|
-4-4-4-4-4-4-4-4slide7-7-7-7-7slide6-6-6-6-2-2-2-2-2-2-2-2-2-2-2-2-2-2-2-2-|
-4-4-4-4-4-4-4-4slide7-7-7-7-7slide6-6-6-6-2-2-2-2-2-2-2-2-2-2-2-2-2-2-2-2-|
-4-4-4-4-4-4-4-4slide7-7-7-7-7slide6-6-6-6-2-2-2-2-2-2-2-2-2-2-2-2-2-2-2-2-|

chorus-guitar2
-21-21-21-21-21-21-21-21-19-19-19-19-17-17-17-17-16-16-16-16-16-16-16-16-12-12-12-12-14-14-14-14-|
-------------------------------------------------------------------------------------------------|
-------------------------------------------------------------------------------------------------|
-------------------------------------------------------------------------------------------------|
-------------------------------------------------------------------------------------------------|
-------------------------------------------------------------------------------------------------|

-12-12-12-12-12-12-12-12-12-12-12-12-14-14-14-14-12-12-12-12-12-12-12-12-12-12-12-12-|
-------------------------------------------------------------------------------------|
-------------------------------------------------------------------------------------|
-------------------------------------------------------------------------------------|
-------------------------------------------------------------------------------------|
-------------------------------------------------------------------------------------|

_____________________________________________________

chorus-guitar1
---------------------------------------------------------------------------|
---------------------------------------------------------------------------|
---------------------------------------------------------------------------|
-4-4-4-4-4-4-4-4slide7-7-7-7-7slide6-6-6-6-2-2-2-2-2-2-2-2-2-2-2-2-2-2-2-2-|
-4-4-4-4-4-4-4-4slide7-7-7-7-7slide6-6-6-6-2-2-2-2-2-2-2-2-2-2-2-2-2-2-2-2-|
-4-4-4-4-4-4-4-4slide7-7-7-7-7slide6-6-6-6-2-2-2-2-2-2-2-2-2-2-2-2-2-2-2-2-|

chorus-guitar2
-21-21-21-21-21-21-21-21-19-19-19-19-17-17-17-17-16-16-16-16-16-16-16-16-12-12-12-12-14-14-14-14-|
-------------------------------------------------------------------------------------------------|
-------------------------------------------------------------------------------------------------|
-------------------------------------------------------------------------------------------------|
-------------------------------------------------------------------------------------------------|
-------------------------------------------------------------------------------------------------|

-12-12-12-12-12-12-12-12-12-12-12-12-14-14-14-14-12-12-12-12-12-12-12-12-12-12-12-12-|
-------------------------------------------------------------------------------------|
-------------------------------------------------------------------------------------|
-------------------------------------------------------------------------------------|
-------------------------------------------------------------------------------------|
-------------------------------------------------------------------------------------|

_____________________________________________________

outro-guitar1
---
---
---
-0-
-0-
-0-

outro-guitar2
-19h21-21-19h21-21-19h21-21-19h21-21-19h21-21-19h21-21-19h21-21-19h21-21-19h21-21--|
-----------------------------------------------------------------------------------|
-----------------------------------------------------------------------------------|
-----------------------------------------------------------------------------------|
-----------------------------------------------------------------------------------|
-----------------------------------------------------------------------------------|
(play "-19h21-21-------------------------------------------------------------------| until the end of the song if you want)
Related for Trailer Park Jesus tab