Guitaretab - guitar tabs
Song name
# A B C D E F G H I J K L M N O P Q R S T U V W X Y Z

Glasvegas - Polmont On My Mind tab

Tabbed by Daniel Bamsey (drbams@yahoo.co.uk) 20/09/2008

Polmont on my mind - Glasvegas
(Allan)

VERSION 1

(Standard Tuning: E A D G B E)

Chords used:

  Dm    C     Am     G   F

-1-----0-----0--5---3---1---
-3-----1-----1--5---3---1---
-2-----0-----2--5---0---2---
-0-----2-----2--7---0---3---
-------3-----0--0---2---3---
--------------------3---1---

a) Rhythm (James)

VERSE:

Fate, Fatal Fate..    An act of..

Dm    C    G        C    G    Am        G  Am x 2

Mr Moonlight.. .     I've Polmont...

F     C    G        F        G        


CHORUS:(downstrokes)
 
C        Am        F        G        x2

Am                  Am          G  Am 


MID-SECTION:

Mr Moonlight...      I've Polmont..     I've Polmont..     I've Polmont..

Dm    C    G        Dm                Am                F        G            

END:

Am                
            


b) LEAD (Rab)

 Verse: (TREMELO PICKING in 2nd verse - i.e fast up and down picking)

  Dm   C    G     C    G    Am      G  Am           

---------------/8----7----5------------- x2
-6----5----3----------------------3---5-
----------------------------------------
----------------------------------------
----------------------------------------
----------------------------------------

  F    C    G     F         G        

----------------------------------  x2
-6----5----3--------------5-------
----------------5-5---7-------7---
----------------------------------
----------------------------------
----------------------------------


CHORUS: (TREMELO PICKING in 2nd chorus)
 
 C              Am            F              G                 

---------------------------------------------------- x2
/8---10---12--12---10-10~--8---6---5--5--3-3~-------
----------------------------------------------------
----------------------------------------------------
----------------------------------------------------
----------------------------------------------------
[ Tab from: http://www.guitaretab.com/g/glasvegas/115511.html ]
 Am                          Am                   G  Am 

---------------------------------------------------- <----Omit this bar 
----------------------------------------------3---5-      before mid
-5~------------------------5-5~----------4~---------      section
----------------------------------------------------
----------------------------------------------------
----------------------------------------------------
 


MID-SECTION:


 Dm    C    G  Dm                Am               

---------------------------------------------
---------------------------------------------
------------------------------2~--4~--5~--4~-
---------------------------------------------
---------------------------------------------
---------------------------------------------

 F              

-----------------------------------------------------------------
-----------------------------------------------------------------
-4-4-4-4-4-4-4-4-5-5-5-5-5-5-5-5-7-7-7-7-7-7-7-7-5-5-5-5-5-5-5-5-
-----------------------------------------------------------------
-----------------------------------------------------------------
-----------------------------------------------------------------

 G             

-----------------------------------------------------------------  
-----------------------------------------------------------------
-5-5-5-5-5-5-5-5-7-7-7-7-7-7-7-7-5-5-5-5-5-5-5-5-4-4-4-4-4-4-4-4-
-----------------------------------------------------------------
-----------------------------------------------------------------
-----------------------------------------------------------------


END:


----------------------------------------------------
----------------------------------------------------
-5~~------------------------------------------------
----------------------------------------------------
----------------------------------------------------
----------------------------------------------------
            



"An act of hate that greets my fall from grace..."
Related for Polmont On My Mind tab