Glasvegas - Please Come Back Home tab

------------------------------------------
Please Come Back Home - Glasvegas
------------------------------------------

This is the lead guitar part for the song.
Its all tremelo picking

Tuning : Standard

Intro/Verse

e|---------------------|
B|---------------------|
G|-12----10----9----7--|
D|---------------------|
A|---------------------|
E|---------------------|


Chorus

e|--------------------------------------------------|
B|-5----7----9----5----7----4----12----10----9----7-|
G|--------------------------------------------------|   x2
D|--------------------------------------------------|
A|--------------------------------------------------|
E|--------------------------------------------------|


Bridge

e-12----13----15----7----12----13----15----8----12----10-|
B--------------------------------------------------------|
G--------------------------------------------------------|
D--------------------------------------------------------|
A--------------------------------------------------------|
E--------------------------------------------------------|


Chorus

e|--------------------------------------------------|
B|-5----7----9----5----7----4----12----10----9----7-|
G|--------------------------------------------------|
D|--------------------------------------------------|
A|--------------------------------------------------|
E|--------------------------------------------------|
Tap to rate this tab
 
# A B C D E F G H I J K L M N O P Q R S T U V W X Y Z