Song name
# A B C D E F G H I J K L M N O P Q R S T U V W X Y Z

Glee Cast - Dont Stop Believing tab

b=bend
p=pull of
*=mute
/=slide up

Guitar run: (Pre-Verse)
E|15-14-12-10-15-14-12-10|15p14p12p10h15p14p12p10h15p14p12p10h15p14p12p10|
B|-----------------------|-----------------------------------------------|
G|-----------------------|-----------------------------------------------|
D|-----------------------|-----------------------------------------------|
A|-----------------------|-----------------------------------------------|
E|-----------------------|-----------------------------------------------|

let ring out
E|17b-----|
B|--------|
G|--------|
D|--------|
A|--------|
E|--------|
  
Verse:
E|----------------|----------------|----------------|
B|----------------|----------------|----------------|
G|----------------|----------------|----------------|
D|----------------|7-7-7-7-7-7-7-7-|9-9-9-9-9-9-9-9-|
A|5-5-5-5-5-5-5-5-|5-5-5-5-5-5-5-5-|7-7-7-7-7-7-7-7-|
E|3-3-3-3-3-3-3-3-|----------------|----------------|

E|------------------------|
B|------------------------|
G|------------------------|
D|------------------------|  Repeat X2
A|10-10-10-10-10-10-10-10-|
E|8--8--8--8--8--8--8--8--|

Chorus:
E|------------------------|            E|----------------|
B|------------------------|            B|----------------|
G|------------------------|            G|----------------|
D|------------------------|  Repeat X2 D|----------------| Repeat X2
A|12-12-12-9--9--9--9--9--|            A|5-5-5-5-5-5-5-5-|
E|10-10-10-7--7--7--7--7--|            E|3-3-3-3-3-3-3-3-|
     *  *     *  *  *  *                   * *   * * * *

Repeat Verse   

Repeat Chorus

Solo:
E|3/8--7---5-8--7------8-8-7-5-----------3/8--7---5-8--7--5-3-10---14-15--|
B|-----------------------------8-7-8p7-5----------------------------------|
G|------------------------------------------------------------------------|
D|------------------------------------------------------------------------|
A|------------------------------------------------------------------------|
E|------------------------------------------------------------------------|

Repeat Verse     
Tap to rate this tab
# A B C D E F G H I J K L M N O P Q R S T U V W X Y Z