Glee Cast - Somewhere Over The Rainbow tab

“Over The Rainbow”- Glee Cast Version

Intro
|-------------------|----------------|---------------|-------------------|
|-1---1---1----1----|-0--0--0----0---|-1---1--1---1--|-1--1--------------|
|---0---------0-----|---0-------0----|----2------2-- |---0---------------|
|--2---2---0h2---2- |--2--2--0h2---2-|-3—3--3-3—3--3-|--2--2----5--5/7---|
|-3-------3---------|-3-----3--------|---------------|-3-----3/7-7-----7-|
|-------------------|----------------|---------------|-------------------|

|-------------------|----------------|-------33--3----|------------------|
|-1---1--1---1------|-0---0--0---0---|-1--1-----1-----|-1---1--1---1-----|
|----2------2-------|----1------1----|---2---2-2---2--|----2------2------|
|-3—3--3—3—3--3-----|-2-2--2-2—2---2-|--2--2----------|-3-3- -3—3—3---3---|
|-------------------|----------------|-0--------------|------------------|
|-------------------|----------------|----------------|------------------|
Verse 1
|-------------------|----------------|----------------|-------------------|
|-1--1----1----1----|-0--0--0----0---|-11--1--1----1--|-1-----------------|
|---0---------0-----|---0-------0----|----2------0h---|---0---------------|
|--2--2----0h2--2---|--2--2--0h2--2--|-3-3--3-3-3---3-|--2-----5-5/7\5--5-|
|-3-------3---------|-3-----3--------|----------------|-3---3/7-7-----7--7|
|-------------------|----------------|----------------|-------------------|

|-------------------|----------------|-1--1---3--3----|-------------------|
|-1-----1--1---1----|-1--1---1--1----|---1------3-----|-1--1---1----1-----|
|----0h2------1-----|---0------2-----|--2--2---0--0---|---2-------2-------|
|-3-3----3—3—3---3--|--2--2---2---2--|-0--------------|--2--2----2----2---|
|-------------------|-3------0-------|--------2-------|-0------0----------|
|-------------------|----------------|----------------|-------------------|

|----------------|
|-1---1--1---1---|
|----2------2----|
|-3-3--3-3-3---3-|
|----------------|
|----------------|
Verse 2
|-------------------|----------------|----------------|-------------------|
|-1--1---1----1-----|-0--0--0----0---|-1---1--1---1---|-1--1---1---1------|
|---0--------0------|---0-------0----|----2------2----|---0------0--------|
|--2--2---0h2---2---|--2--2--0h2--2--|-3-3--3-3-3---3-|--2--2---2----2----|
|-3------3----------|-3-----3--------|----------------|-3------3----------|
|-------------------|----------------|----------------|------------------ |

|-------------------|----------------|-1--1--3---3----||-------------[x4]-|
|-11--1---1---1-----|-1--1--1--1-----|---1-----3------||--1----1-----[x4]-|
|----2-------1------|---0-----2------|--2--2--0---0---||-----2-------[x4]-|
|-3-3---3-3—3--3----|--2--2--2---2---|-0------------- ||--3—3---3----[x4]-|
|-------------------|-3-----0--------|-------2--------||-------------[x4]-|
|-------------------|----------------|----------------||-------------[x4]-|
Interlude(I didn't do the measures the same)
|--------8-7-3-5-6/7-8-|-------------------------------|
|-1--1---8-8-3-5-6/7-8-|-------------------------------|
|---0------------------|---5h7p5-8p7p5--5--------------|
|--2--2----------------|-/7-----------7--7--5--2h3p2---|
|-3--------------------|-----------------------------3-|
|----------------------|-------------------------------|

|-------------------------|---------------8-10-|
|-6p5p3-5p3p1-1h3--1-1/3--|--1/5-8-----5--8-10-|
|-----------------1-----1-|-0---------5--------|
|-------------------------|---------/7---------|
|-------------------------|--------------------|
|-------------------------|--------------------|

|-10h12p10-8-7-8-7-5--5h7p5-3---|
|-----------------------------3-|
|-------------------------------|
|-------------------------------|
|-------------------------------|
|-------------------------------|

Bridge
||--(first time)||---(second time)|---------------|--------33----3-----|
||-1--1--1--1---||-1--1--1----1---|-0---0--0--0---|-1--1--------1------|
||---0-----0----||---0----0-------|---0------0----|---2-------2-----2--|
||--2--2--2--2- ||--2--2---0h2--2-|--0---0--0---0-|--2--2--0-----------|
||-3-----3------||-3-----3--------|---------------|-0------------------|
||--------------||----------------|-3------3------|--------------------|

|----------------|
|-1---1---1---1--|
|----2-------2---|REPEAT BRIDGE
|-3-3--3--3-3--3-|
|----------------|
|----------------|
Verse 3
|---------------|--------------|-----------------|---------------|
|-1--1--1--1----|-0--0--0--0---|-1---1--1-----1--|-1--1---1--1---|
|---0-----0-----|---0-----0----|----2------0h2---|---0------0----|
|--2--2--2---2--|--2--2--2---2-|-3-3--3-3-3----3-|--2--2---2---2-|
|-3-----3-------|-3-----3------|-----------------|-3------3------|
|---------------|--------------|-----------------|---------------|

|---------------|--------------|-1--1---3---3----|---------------|
|-1---1--1---1--|-1--1--1--1---|---1-------3-----|-1--1---1--1---|
|----2------1---|---0-----2----|--2--2---0----0--|---2------2----|
|-3-3--3—3-3--3-|--2--2--2---2-|-0---------------|--2--2---2--2--|
|---------------|-3-----0------|--------2--------|-0------0------|
|---------------|--------------|-----------------|---------------|

Ukulele has last chord (Cmaj7)
Uke Part
C     Em    F     Fm    Am    E7    Dm    G     Cmaj7
|-3-| |-2-| |-3-| |-3-| |-3-| |-2-| |-0-| |-2-| |-2-|
|-0-| |-0-| |-1-| |-1-| |-0-| |-0-| |-1-| |-3-| |-0-|
|-0-| |-4-| |-0-| |-0-| |-0-| |-2-| |-2-| |-2-| |-0-|
|-0-| |-0-| |-2-| |-2-| |-2-| |-1-| |-2-| |-0-| |-0-|
Intro: C   Em   F   C   F   E7   Am   F
C         Em                F      C     F      Fm C           Am
Somewhere over the rainbow, way up high, there’s a land that I dreamed of 
Dm        G       Am F
once in a lullaby.

C         Em                F         C     F   Fm  C               Am
Somewhere over the rainbow, skies are blue, and the dreams that you dared 
    Dm          G       Am   F
to dream really do come true.
Interlude: C   Em   F   C   F   Fm   C   Am   Dm   G  

    C                             G                               Am     F 
Someday I’ll wish upon a star and wake up where my dreams are far behind me.
      C                                G                 
Where troubles melt like lemon drops away above the chimney tops, that’s 
Am           F
where you’ll find me.

C         Em              F           C    F     Fm  C        Am       Dm
Somewhere over the rainbow, bluebirds fly. Birds fly over the rainbow, why, 
        G         Am      F    Cmaj7
oh then why can’t I?      I?
Tap to rate this tab
 
# A B C D E F G H I J K L M N O P Q R S T U V W X Y Z